  0
SECTION
  2
HEADER
  9
$ACADVER
  1
AC1009
  9
$INSBASE
 10
0.0
 20
0.0
 30
0.0
  9
$EXTMIN
 10
-66.528716
 20
-37.988571
 30
-18.302901
  9
$EXTMAX
 10
67.69158
 20
114.471196
 30
165.820652
  9
$LIMMIN
 10
0.0
 20
0.0
  9
$LIMMAX
 10
12.0
 20
9.0
  9
$ORTHOMODE
 70
     1
  9
$REGENMODE
 70
     0
  9
$FILLMODE
 70
     1
  9
$QTEXTMODE
 70
     0
  9
$MIRRTEXT
 70
     0
  9
$DRAGMODE
 70
     2
  9
$LTSCALE
 40
1.0
  9
$OSMODE
 70
     0
  9
$ATTMODE
 70
     1
  9
$TEXTSIZE
 40
0.2
  9
$TRACEWID
 40
0.05
  9
$TEXTSTYLE
  7
STANDARD
  9
$CLAYER
  8
0
  9
$CELTYPE
  6
CONTINUOUS
  9
$CECOLOR
 62
     7
  9
$DIMSCALE
 40
1.0
  9
$DIMASZ
 40
0.18
  9
$DIMEXO
 40
0.0625
  9
$DIMDLI
 40
0.38
  9
$DIMRND
 40
0.0
  9
$DIMDLE
 40
0.0
  9
$DIMEXE
 40
0.18
  9
$DIMTP
 40
0.0
  9
$DIMTM
 40
0.0
  9
$DIMTXT
 40
0.18
  9
$DIMCEN
 40
0.09
  9
$DIMTSZ
 40
0.0
  9
$DIMTOL
 70
     0
  9
$DIMLIM
 70
     0
  9
$DIMTIH
 70
     1
  9
$DIMTOH
 70
     1
  9
$DIMSE1
 70
     0
  9
$DIMSE2
 70
     0
  9
$DIMTAD
 70
     0
  9
$DIMZIN
 70
     0
  9
$DIMBLK
  1

  9
$DIMASO
 70
     1
  9
$DIMSHO
 70
     1
  9
$DIMPOST
  1

  9
$DIMAPOST
  1

  9
$DIMALT
 70
     0
  9
$DIMALTD
 70
     2
  9
$DIMALTF
 40
25.4
  9
$DIMLFAC
 40
1.0
  9
$DIMTOFL
 70
     0
  9
$DIMTVP
 40
0.0
  9
$DIMTIX
 70
     0
  9
$DIMSOXD
 70
     0
  9
$DIMSAH
 70
     0
  9
$DIMBLK1
  1

  9
$DIMBLK2
  1

  9
$DIMSTYLE
  2
*UNNAMED
  9
$DIMCLRD
 70
     0
  9
$DIMCLRE
 70
     0
  9
$DIMCLRT
 70
     0
  9
$DIMTFAC
 40
1.0
  9
$DIMGAP
 40
0.09
  9
$LUNITS
 70
     2
  9
$LUPREC
 70
     4
  9
$SKETCHINC
 40
0.1
  9
$FILLETRAD
 40
0.0
  9
$AUNITS
 70
     0
  9
$AUPREC
 70
     0
  9
$MENU
  1
ACAD
  9
$ELEVATION
 40
0.0
  9
$PELEVATION
 40
0.0
  9
$THICKNESS
 40
0.0
  9
$LIMCHECK
 70
     0
  9
$BLIPMODE
 70
     1
  9
$CHAMFERA
 40
0.0
  9
$CHAMFERB
 40
0.0
  9
$SKPOLY
 70
     0
  9
$TDCREATE
 40
2449497.585721180
  9
$TDUPDATE
 40
2449498.850612152
  9
$TDINDWG
 40
0.0343519676
  9
$TDUSRTIMER
 40
0.0343519676
  9
$USRTIMER
 70
     1
  9
$ANGBASE
 50
0.0
  9
$ANGDIR
 70
     0
  9
$PDMODE
 70
     0
  9
$PDSIZE
 40
0.0
  9
$PLINEWID
 40
0.0
  9
$COORDS
 70
     1
  9
$SPLFRAME
 70
     0
  9
$SPLINETYPE
 70
     6
  9
$SPLINESEGS
 70
     8
  9
$ATTDIA
 70
     0
  9
$ATTREQ
 70
     1
  9
$HANDLING
 70
     0
  9
$HANDSEED
  5
0
  9
$SURFTAB1
 70
     6
  9
$SURFTAB2
 70
     6
  9
$SURFTYPE
 70
     6
  9
$SURFU
 70
     6
  9
$SURFV
 70
     6
  9
$UCSNAME
  2

  9
$UCSORG
 10
0.0
 20
0.0
 30
0.0
  9
$UCSXDIR
 10
1.0
 20
0.0
 30
0.0
  9
$UCSYDIR
 10
0.0
 20
0.0
 30
1.0
  9
$PUCSNAME
  2

  9
$PUCSORG
 10
0.0
 20
0.0
 30
0.0
  9
$PUCSXDIR
 10
1.0
 20
0.0
 30
0.0
  9
$PUCSYDIR
 10
0.0
 20
1.0
 30
0.0
  9
$USERI1
 70
     0
  9
$USERI2
 70
     0
  9
$USERI3
 70
     0
  9
$USERI4
 70
     0
  9
$USERI5
 70
     0
  9
$USERR1
 40
0.0
  9
$USERR2
 40
0.0
  9
$USERR3
 40
0.0
  9
$USERR4
 40
0.0
  9
$USERR5
 40
0.0
  9
$WORLDVIEW
 70
     1
  9
$SHADEDGE
 70
     3
  9
$SHADEDIF
 70
    70
  9
$TILEMODE
 70
     1
  9
$MAXACTVP
 70
    16
  9
$PINSBASE
 10
0.0
 20
0.0
 30
0.0
  9
$PLIMCHECK
 70
     0
  9
$PEXTMIN
 10
1.000000E+20
 20
1.000000E+20
 30
1.000000E+20
  9
$PEXTMAX
 10
-1.000000E+20
 20
-1.000000E+20
 30
-1.000000E+20
  9
$PLIMMIN
 10
0.0
 20
0.0
  9
$PLIMMAX
 10
12.0
 20
9.0
  9
$UNITMODE
 70
     0
  9
$VISRETAIN
 70
     0
  9
$PLINEGEN
 70
     0
  9
$PSLTSCALE
 70
     0
  9
$TREEDEPTH
 70
  3020
  9
$DWGCODEPAGE
  3
undefined
  0
ENDSEC
  0
SECTION
  2
TABLES
  0
TABLE
  2
VPORT
 70
     2
  0
VPORT
  2
*ACTIVE
 70
     0
 10
0.0
 20
0.0
 11
1.0
 21
1.0
 12
0.0
 22
0.0
 13
0.0
 23
0.0
 14
2.5
 24
2.5
 15
0.0
 25
0.0
 16
29.691521
 26
-28.547847
 36
-29.443325
 17
46.203598
 27
-20.257209
 37
34.487661
 40
34.2603
 41
1.345749
 42
50.0
 43
-1.23143
 44
-1.23143
 50
0.0
 51
0.0
 71
     1
 72
   100
 73
     1
 74
     1
 75
     0
 76
     0
 77
     0
 78
     0
  0
ENDTAB
  0
TABLE
  2
LTYPE
 70
     1
  0
LTYPE
  2
CONTINUOUS
 70
    64
  3
Solid line
 72
    65
 73
     0
 40
0.0
  0
ENDTAB
  0
TABLE
  2
LAYER
 70
     5
  0
LAYER
  2
0
 70
    64
 62
     7
  6
CONTINUOUS
  0
LAYER
  2
CRANE1
 70
    64
 62
     2
  6
CONTINUOUS
  0
LAYER
  2
BOOM1
 70
    64
 62
    30
  6
CONTINUOUS
  0
LAYER
  2
RIGHTP
 70
    64
 62
     7
  6
CONTINUOUS
  0
LAYER
  2
STRIPE
 70
    64
 62
     7
  6
CONTINUOUS
  0
ENDTAB
  0
TABLE
  2
STYLE
 70
     1
  0
STYLE
  2
STANDARD
 70
    64
 40
0.0
 41
1.0
 50
0.0
 71
     0
 42
0.2
  3
txt
  4

  0
ENDTAB
  0
TABLE
  2
VIEW
 70
    15
  0
VIEW
  2
Z
 70
     0
 40
17.545086
 10
0.0
 20
0.0
 41
23.611278
 11
3.992466
 21
-44.082913
 31
4.047128
 12
0.04357
 22
-0.170177
 32
4.508602
 42
50.0
 43
-0.785875
 44
-0.785875
 50
0.0
 71
     1
  0
VIEW
  2
V2
 70
     0
 40
111.504403
 10
0.0
 20
0.0
 41
150.056913
 11
-161.726791
 21
-137.033019
 31
19.381544
 12
65.300252
 22
24.040308
 32
26.1
 42
50.0
 43
23.453104
 44
23.453104
 50
0.0
 71
     1
  0
VIEW
  2
FLARE-TIP
 70
     0
 40
118.847605
 10
0.0
 20
0.0
 41
159.939017
 11
127.726125
 21
21.535219
 31
23.763
 12
28.202416
 22
0.730322
 32
34.718908
 42
50.0
 43
-31.556801
 44
-31.556801
 50
0.0
 71
     1
  0
VIEW
  2
4OCLOCK
 70
     0
 40
111.504403
 10
0.0
 20
0.0
 41
150.056913
 11
-161.726791
 21
-137.033019
 31
19.381544
 12
65.300252
 22
24.040308
 32
26.1
 42
50.0
 43
23.453104
 44
23.453104
 50
0.0
 71
     1
  0
VIEW
  2
1OCLOCK-LOW
 70
     0
 40
285.045227
 10
0.0
 20
0.0
 41
383.599261
 11
78.948555
 21
-54.056792
 31
-25.639585
 12
55.8
 22
-16.3
 32
27.0
 42
50.0
 43
-9.039135
 44
-9.039135
 50
0.0
 71
     1
  0
VIEW
  2
LOOKWELL1
 70
     0
 40
118.847605
 10
0.0
 20
0.0
 41
178.159918
 11
-52.49586
 21
15.066817
 31
19.642233
 12
45.0
 22
-31.0
 32
6.82
 42
50.0
 43
-31.556801
 44
-31.556801
 50
0.0
 71
     1
  0
VIEW
  2
LOOKFLARE
 70
     0
 40
12.862711
 10
0.0
 20
0.0
 41
19.282
 11
-100.930855
 21
-34.629414
 31
-26.716403
 12
136.02
 22
0.0
 32
53.74
 42
37.771629
 43
3.776542
 44
3.776542
 50
0.0
 71
     1
  0
VIEW
  2
LOOKWELL2
 70
     0
 40
116.555343
 10
0.0
 20
0.0
 41
174.723675
 11
82.353637
 21
-19.905296
 31
47.229838
 12
45.0
 22
23.0
 32
0.0
 42
37.771629
 43
59.160312
 44
59.160312
 50
0.0
 71
     1
  0
VIEW
  2
CRANES
 70
     0
 40
56.546861
 10
0.0
 20
0.0
 41
84.767246
 11
57.685079
 21
-42.957992
 31
14.800427
 12
30.223978
 22
0.545921
 32
36.840493
 42
50.0
 43
-16.063957
 44
-16.063957
 50
0.0
 71
     1
  0
VIEW
  2
BRUCKER
 70
     0
 40
9.049273
 10
0.0
 20
0.0
 41
13.56542
 11
-12.645067
 21
-27.715014
 31
3.509855
 12
-16.383674
 22
-4.411729
 32
18.36483
 42
50.0
 43
8.960861
 44
8.960861
 50
0.0
 71
     1
  0
VIEW
  2
5OCLOCK-CLOSE
 70
     0
 40
111.504403
 10
0.0
 20
0.0
 41
167.152004
 11
-169.973081
 21
-90.852505
 31
29.129319
 12
59.983039
 22
32.333184
 32
20.938378
 42
68.737812
 43
23.453104
 44
23.453104
 50
0.0
 71
     1
  0
VIEW
  2
SIDE-E
 70
     0
 40
111.504403
 10
0.0
 20
0.0
 41
167.152004
 11
-23.341823
 21
-349.124332
 31
52.884524
 12
65.409623
 22
32.064197
 32
21.557773
 42
68.737812
 43
23.453104
 44
23.453104
 50
0.0
 71
     1
  0
VIEW
  2
RAILING
 70
     0
 40
111.504403
 10
0.0
 20
0.0
 41
171.958597
 11
-5.86032
 21
-0.201447
 31
0.623726
 12
9.728591
 22
-3.453358
 32
34.590205
 42
25.631152
 43
23.453104
 44
23.453104
 50
0.0
 71
     1
  0
VIEW
  2
RAIL
 70
     0
 40
111.504403
 10
0.0
 20
0.0
 41
171.958597
 11
-0.000057
 21
-0.000002
 31
0.000006
 12
9.728591
 22
-3.453358
 32
34.590205
 42
25.631152
 43
23.453104
 44
23.453104
 50
0.0
 71
     1
  0
VIEW
  2
V1
 70
     0
 40
34.2603
 10
0.0
 20
0.0
 41
46.105757
 11
29.691521
 21
-28.547847
 31
-29.443325
 12
46.203598
 22
-20.257209
 32
34.487661
 42
50.0
 43
-1.23143
 44
-1.23143
 50
0.0
 71
     1
  0
ENDTAB
  0
TABLE
  2
UCS
 70
     3
  0
UCS
  2
XZ
 70
     0
 10
0.0
 20
0.0
 30
0.0
 11
1.0
 21
0.0
 31
0.0
 12
0.0
 22
0.0
 32
1.0
  0
UCS
  2
YZ
 70
     0
 10
0.0
 20
0.0
 30
0.0
 11
0.0
 21
1.0
 31
0.0
 12
0.0
 22
0.0
 32
1.0
  0
UCS
  2
TEMP
 70
     0
 10
0.0
 20
0.0
 30
0.0
 11
0.0
 21
1.0
 31
0.0
 12
0.0
 22
0.0
 32
1.0
  0
ENDTAB
  0
TABLE
  2
APPID
 70
     1
  0
APPID
  2
ACAD
 70
    64
  0
ENDTAB
  0
TABLE
  2
DIMSTYLE
 70
     0
  0
ENDTAB
  0
ENDSEC
  0
SECTION
  2
BLOCKS
  0
BLOCK
  8
0
  2
DISK_Z
 70
    66
 10
0.0
 20
0.0
 30
0.0
  3
DISK_Z
  0
POLYLINE
  8
0
 62
     0
 66
     1
 10
0.0
 20
0.0
 30
0.0
 70
    48
 71
     2
 72
     8
  0
VERTEX
  8
0
 62
     0
 10
1.0
 20
0.0
 30
1.0
 70
    64
  0
VERTEX
  8
0
 62
     0
 10
0.707107
 20
0.707107
 30
1.0
 70
    64
  0
VERTEX
  8
0
 62
     0
 10
0.0
 20
1.0
 30
1.0
 70
    64
  0
VERTEX
  8
0
 62
     0
 10
-0.707107
 20
0.707107
 30
1.0
 70
    64
  0
VERTEX
  8
0
 62
     0
 10
-1.0
 20
0.0
 30
1.0
 70
    64
  0
VERTEX
  8
0
 62
     0
 10
-0.707107
 20
-0.707107
 30
1.0
 70
    64
  0
VERTEX
  8
0
 62
     0
 10
0.0
 20
-1.0
 30
1.0
 70
    64
  0
VERTEX
  8
0
 62
     0
 10
0.707107
 20
-0.707107
 30
1.0
 70
    64
  0
VERTEX
  8
0
 62
     0
 10
1.0
 20
0.0
 30
-1.0
 70
    64
  0
VERTEX
  8
0
 62
     0
 10
0.707107
 20
0.707107
 30
-1.0
 70
    64
  0
VERTEX
  8
0
 62
     0
 10
0.0
 20
1.0
 30
-1.0
 70
    64
  0
VERTEX
  8
0
 62
     0
 10
-0.707107
 20
0.707107
 30
-1.0
 70
    64
  0
VERTEX
  8
0
 62
     0
 10
-1.0
 20
0.0
 30
-1.0
 70
    64
  0
VERTEX
  8
0
 62
     0
 10
-0.707107
 20
-0.707107
 30
-1.0
 70
    64
  0
VERTEX
  8
0
 62
     0
 10
0.0
 20
-1.0
 30
-1.0
 70
    64
  0
VERTEX
  8
0
 62
     0
 10
0.707107
 20
-0.707107
 30
-1.0
 70
    64
  0
SEQEND
  8
0
 62
     0
  0
ATTDEF
  8
0
 62
     0
 10
0.0
 20
0.0
 30
0.0
 40
0.1
  1
Disk_Z
  3
name
  2
NAME
 70
     1
  0
ATTDEF
  8
0
 62
     0
 10
0.0
 20
-0.166667
 30
0.0
 40
0.1
  1
intersection
  3
type
  2
TYPE
 70
     1
  0
ENDBLK
  8
0
  0
BLOCK
  8
0
  2
DISK_Y
 70
    66
 10
0.0
 20
0.0
 30
0.0
  3
DISK_Y
  0
POLYLINE
  8
0
 62
     0
 66
     1
 10
0.0
 20
0.0
 30
0.0
 70
    48
 71
     2
 72
     8
  0
VERTEX
  8
0
 62
     0
 10
1.0
 20
-1.0
 30
0.0
 70
    64
  0
VERTEX
  8
0
 62
     0
 10
0.707107
 20
-1.0
 30
0.707107
 70
    64
  0
VERTEX
  8
0
 62
     0
 10
0.0
 20
-1.0
 30
1.0
 70
    64
  0
VERTEX
  8
0
 62
     0
 10
-0.707107
 20
-1.0
 30
0.707107
 70
    64
  0
VERTEX
  8
0
 62
     0
 10
-1.0
 20
-1.0
 30
0.0
 70
    64
  0
VERTEX
  8
0
 62
     0
 10
-0.707107
 20
-1.0
 30
-0.707107
 70
    64
  0
VERTEX
  8
0
 62
     0
 10
0.0
 20
-1.0
 30
-1.0
 70
    64
  0
VERTEX
  8
0
 62
     0
 10
0.707107
 20
-1.0
 30
-0.707107
 70
    64
  0
VERTEX
  8
0
 62
     0
 10
1.0
 20
1.0
 30
0.0
 70
    64
  0
VERTEX
  8
0
 62
     0
 10
0.707107
 20
1.0
 30
0.707107
 70
    64
  0
VERTEX
  8
0
 62
     0
 10
0.0
 20
1.0
 30
1.0
 70
    64
  0
VERTEX
  8
0
 62
     0
 10
-0.707107
 20
1.0
 30
0.707107
 70
    64
  0
VERTEX
  8
0
 62
     0
 10
-1.0
 20
1.0
 30
0.0
 70
    64
  0
VERTEX
  8
0
 62
     0
 10
-0.707107
 20
1.0
 30
-0.707107
 70
    64
  0
VERTEX
  8
0
 62
     0
 10
0.0
 20
1.0
 30
-1.0
 70
    64
  0
VERTEX
  8
0
 62
     0
 10
0.707107
 20
1.0
 30
-0.707107
 70
    64
  0
SEQEND
  8
0
 62
     0
  0
ATTDEF
  8
0
 62
     0
 10
0.0
 20
0.0
 30
0.0
 40
0.1
  1
Disk_Y
  3
name
  2
NAME
 70
     1
  0
ATTDEF
  8
0
 62
     0
 10
0.0
 20
-0.166667
 30
0.0
 40
0.1
  1
intersection
  3
type
  2
TYPE
 70
     1
  0
ENDBLK
  8
0
  0
BLOCK
  8
0
  2
CONE_Y
 70
    66
 10
0.0
 20
0.0
 30
0.0
  3
CONE_Y
  0
POLYLINE
  8
0
 66
     1
 10
0.0
 20
0.0
 30
0.0
 70
    48
 71
     2
 72
     8
  0
VERTEX
  8
0
 10
1.0
 20
-1.0
 30
0.0
 70
    64
  0
VERTEX
  8
0
 10
0.707107
 20
-1.0
 30
-0.707107
 70
    64
  0
VERTEX
  8
0
 10
0.0
 20
-1.0
 30
-1.0
 70
    64
  0
VERTEX
  8
0
 10
-0.707107
 20
-1.0
 30
-0.707107
 70
    64
  0
VERTEX
  8
0
 10
-1.0
 20
-1.0
 30
0.0
 70
    64
  0
VERTEX
  8
0
 10
-0.707107
 20
-1.0
 30
0.707107
 70
    64
  0
VERTEX
  8
0
 10
0.0
 20
-1.0
 30
1.0
 70
    64
  0
VERTEX
  8
0
 10
0.707107
 20
-1.0
 30
0.707107
 70
    64
  0
VERTEX
  8
0
 10
0.0
 20
1.0
 30
0.0
 70
    64
  0
VERTEX
  8
0
 10
0.0
 20
1.0
 30
0.0
 70
    64
  0
VERTEX
  8
0
 10
0.0
 20
1.0
 30
0.0
 70
    64
  0
VERTEX
  8
0
 10
0.0
 20
1.0
 30
0.0
 70
    64
  0
VERTEX
  8
0
 10
0.0
 20
1.0
 30
0.0
 70
    64
  0
VERTEX
  8
0
 10
0.0
 20
1.0
 30
0.0
 70
    64
  0
VERTEX
  8
0
 10
0.0
 20
1.0
 30
0.0
 70
    64
  0
VERTEX
  8
0
 10
0.0
 20
1.0
 30
0.0
 70
    64
  0
SEQEND
  8
0
  0
ATTDEF
  8
0
 62
     0
 10
0.0
 20
0.0
 30
0.0
 40
0.1
  1
Cone_Y
  3
name
  2
NAME
 70
     1
 50
180.0
210
0.0
220
0.9999999999999999
230
0.0
  0
ATTDEF
  8
0
 62
     0
 10
0.0
 20
0.166667
 30
0.0
 40
0.1
  1
intersection
  3
type
  2
TYPE
 70
     1
 50
180.0
210
0.0
220
0.9999999999999999
230
0.0
  0
ENDBLK
  8
0
  0
BLOCK
  8
0
  2
CUBE
 70
    66
 10
0.0
 20
0.0
 30
0.0
  3
CUBE
  0
POLYLINE
  8
0
 62
     0
 66
     1
 10
0.0
 20
0.0
 30
0.0
 70
    16
 71
     6
 72
     3
  0
VERTEX
  8
0
 62
     0
 10
1.0
 20
-1.0
 30
1.0
 70
    64
  0
VERTEX
  8
0
 62
     0
 10
1.0
 20
-1.0
 30
-1.0
 70
    64
  0
VERTEX
  8
0
 62
     0
 10
1.0
 20
-1.0
 30
-1.0
 70
    64
  0
VERTEX
  8
0
 62
     0
 10
-1.0
 20
-1.0
 30
1.0
 70
    64
  0
VERTEX
  8
0
 62
     0
 10
-1.0
 20
-1.0
 30
-1.0
 70
    64
  0
VERTEX
  8
0
 62
     0
 10
-1.0
 20
-1.0
 30
-1.0
 70
    64
  0
VERTEX
  8
0
 62
     0
 10
-1.0
 20
1.0
 30
1.0
 70
    64
  0
VERTEX
  8
0
 62
     0
 10
-1.0
 20
1.0
 30
-1.0
 70
    64
  0
VERTEX
  8
0
 62
     0
 10
-1.0
 20
-1.0
 30
-1.0
 70
    64
  0
VERTEX
  8
0
 62
     0
 10
1.0
 20
1.0
 30
1.0
 70
    64
  0
VERTEX
  8
0
 62
     0
 10
1.0
 20
1.0
 30
-1.0
 70
    64
  0
VERTEX
  8
0
 62
     0
 10
1.0
 20
-1.0
 30
-1.0
 70
    64
  0
VERTEX
  8
0
 62
     0
 10
1.0
 20
1.0
 30
1.0
 70
    64
  0
VERTEX
  8
0
 62
     0
 10
1.0
 20
1.0
 30
1.0
 70
    64
  0
VERTEX
  8
0
 62
     0
 10
1.0
 20
-1.0
 30
1.0
 70
    64
  0
VERTEX
  8
0
 62
     0
 10
-1.0
 20
1.0
 30
1.0
 70
    64
  0
VERTEX
  8
0
 62
     0
 10
-1.0
 20
1.0
 30
1.0
 70
    64
  0
VERTEX
  8
0
 62
     0
 10
-1.0
 20
-1.0
 30
1.0
 70
    64
  0
SEQEND
  8
0
 62
     0
  0
ATTDEF
  8
0
 62
     0
 10
0.0
 20
0.0
 30
0.0
 40
0.1
  1
intersection
  3
type
  2
TYPE
 70
     1
  0
ATTDEF
  8
0
 62
     0
 10
0.0
 20
-0.166667
 30
0.0
 40
0.1
  1
Cube
  3
name
  2
NAME
 70
     1
  0
ENDBLK
  8
0
  0
BLOCK
  8
0
  2
WEDGE
 70
    66
 10
0.0
 20
0.0
 30
0.0
  3
WEDGE
  0
POLYLINE
  8
0
 62
     0
 66
     1
 10
0.0
 20
0.0
 30
0.0
 70
    16
 71
     6
 72
     3
  0
VERTEX
  8
0
 62
     0
 10
-1.0
 20
-1.0
 30
1.0
 70
    64
  0
VERTEX
  8
0
 62
     0
 10
-1.0
 20
-1.0
 30
1.0
 70
    64
  0
VERTEX
  8
0
 62
     0
 10
-1.0
 20
-1.0
 30
1.0
 70
    64
  0
VERTEX
  8
0
 62
     0
 10
1.0
 20
-1.0
 30
-1.0
 70
    64
  0
VERTEX
  8
0
 62
     0
 10
1.0
 20
-1.0
 30
1.0
 70
    64
  0
VERTEX
  8
0
 62
     0
 10
1.0
 20
-1.0
 30
1.0
 70
    64
  0
VERTEX
  8
0
 62
     0
 10
1.0
 20
1.0
 30
-1.0
 70
    64
  0
VERTEX
  8
0
 62
     0
 10
1.0
 20
1.0
 30
1.0
 70
    64
  0
VERTEX
  8
0
 62
     0
 10
1.0
 20
-1.0
 30
1.0
 70
    64
  0
VERTEX
  8
0
 62
     0
 10
-1.0
 20
1.0
 30
1.0
 70
    64
  0
VERTEX
  8
0
 62
     0
 10
-1.0
 20
1.0
 30
1.0
 70
    64
  0
VERTEX
  8
0
 62
     0
 10
-1.0
 20
-1.0
 30
1.0
 70
    64
  0
VERTEX
  8
0
 62
     0
 10
-1.0
 20
1.0
 30
1.0
 70
    64
  0
VERTEX
  8
0
 62
     0
 10
-1.0
 20
1.0
 30
1.0
 70
    64
  0
VERTEX
  8
0
 62
     0
 10
-1.0
 20
-1.0
 30
1.0
 70
    64
  0
VERTEX
  8
0
 62
     0
 10
1.0
 20
1.0
 30
-1.0
 70
    64
  0
VERTEX
  8
0
 62
     0
 10
1.0
 20
1.0
 30
-1.0
 70
    64
  0
VERTEX
  8
0
 62
     0
 10
1.0
 20
-1.0
 30
-1.0
 70
    64
  0
SEQEND
  8
0
 62
     0
  0
ATTDEF
  8
0
 62
     0
 10
0.0
 20
0.0
 30
0.0
 40
0.1
  1
intersection
  3
type
  2
TYPE
 70
     1
  0
ATTDEF
  8
0
 62
     0
 10
0.0
 20
-0.166667
 30
0.0
 40
0.1
  1
Wedge
  3
name
  2
NAME
 70
     1
  0
ENDBLK
  8
0
  0
BLOCK
  8
0
  2
CO
 70
    64
 10
0.0
 20
0.0
 30
0.0
  3
CO
  0
INSERT
  8
0
 66
     1
  2
ELLIPS
 10
-3.146151
 20
-0.539326
 30
-0.004011
 42
0.7
 50
348.696938
 43
0.15
210
0.0
220
-1.0
230
0.0
  0
ATTRIB
  8
0
 62
     0
 10
-3.146151
 20
-0.539326
 30
-0.004011
 40
0.08
  1
quadric
  2
TYPE
 70
     1
 50
348.696938
 41
2.5
210
0.0
220
-1.0
230
0.0
  0
ATTRIB
  8
0
 62
     0
 10
-3.172285
 20
-0.670073
 30
-0.004011
 40
0.08
  1
Ellipsoid
  2
NAME
 70
     1
 50
348.696938
 41
2.5
210
0.0
220
-1.0
230
0.0
  0
SEQEND
  8
0
  0
INSERT
  8
0
 66
     1
  2
ELLIPS
 10
3.146151
 20
0.543337
 30
0.0
 42
0.7
 50
168.696938
 43
0.15
210
0.0
220
0.0
230
-1.0
  0
ATTRIB
  8
0
 62
     0
 10
3.146151
 20
0.543337
 30
0.0
 40
0.08
  1
quadric
  2
TYPE
 70
     1
 50
168.696938
 41
2.5
210
0.0
220
0.0
230
-1.0
  0
ATTRIB
  8
0
 62
     0
 10
3.172285
 20
0.674084
 30
0.0
 40
0.08
  1
Ellipsoid
  2
NAME
 70
     1
 50
168.696938
 41
2.5
210
0.0
220
0.0
230
-1.0
  0
SEQEND
  8
0
  0
INSERT
  8
0
 66
     1
  2
ELLIPS
 10
3.146151
 20
0.539326
 30
0.004011
 42
0.7
 50
168.696938
 43
0.15
210
0.0
220
1.0
230
0.0
  0
ATTRIB
  8
0
 62
     0
 10
3.146151
 20
0.539326
 30
0.004011
 40
0.08
  1
quadric
  2
TYPE
 70
     1
 50
168.696938
 41
2.5
210
0.0
220
1.0
230
0.0
  0
ATTRIB
  8
0
 62
     0
 10
3.172285
 20
0.670073
 30
0.004011
 40
0.08
  1
Ellipsoid
  2
NAME
 70
     1
 50
168.696938
 41
2.5
210
0.0
220
1.0
230
0.0
  0
SEQEND
  8
0
  0
INSERT
  8
0
 66
     1
  2
ELLIPS
 10
-3.146151
 20
-0.535315
 30
0.0
 42
0.7
 50
348.696938
 43
0.15
  0
ATTRIB
  8
0
 62
     0
 10
-3.146151
 20
-0.535315
 30
0.0
 40
0.08
  1
quadric
  2
TYPE
 70
     1
 50
348.696938
 41
2.5
  0
ATTRIB
  8
0
 62
     0
 10
-3.172285
 20
-0.666062
 30
0.0
 40
0.08
  1
Ellipsoid
  2
NAME
 70
     1
 50
348.696938
 41
2.5
  0
SEQEND
  8
0
  0
INSERT
  8
0
 66
     1
  2
ELLIPS
 10
0.0075
 20
0.004011
 30
0.0
 41
4.0
  0
ATTRIB
  8
0
 62
     0
 10
0.0075
 20
0.004011
 30
0.0
 40
0.2
  1
quadric
  2
TYPE
 70
     1
  0
ATTRIB
  8
0
 62
     0
 10
0.0075
 20
-0.329322
 30
0.0
 40
0.2
  1
Ellipsoid
  2
NAME
 70
     1
  0
SEQEND
  8
0
  0
ENDBLK
  8
0
  0
BLOCK
  8
0
  2
ELLIPS
 70
    66
 10
0.0
 20
0.0
 30
0.0
  3
ELLIPS
  0
POLYLINE
  8
0
 62
     0
 66
     1
 10
0.0
 20
0.0
 30
0.0
 70
    17
 71
     8
 72
     9
  0
VERTEX
  8
0
 62
     0
 10
0.0
 20
0.0
 30
1.0
 70
    64
  0
VERTEX
  8
0
 62
     0
 10
-0.382683
 20
0.0
 30
0.92388
 70
    64
  0
VERTEX
  8
0
 62
     0
 10
-0.707107
 20
0.0
 30
0.707107
 70
    64
  0
VERTEX
  8
0
 62
     0
 10
-0.92388
 20
0.0
 30
0.382683
 70
    64
  0
VERTEX
  8
0
 62
     0
 10
-1.0
 20
0.0
 30
0.0
 70
    64
  0
VERTEX
  8
0
 62
     0
 10
-0.92388
 20
0.0
 30
-0.382683
 70
    64
  0
VERTEX
  8
0
 62
     0
 10
-0.707107
 20
0.0
 30
-0.707107
 70
    64
  0
VERTEX
  8
0
 62
     0
 10
-0.382683
 20
0.0
 30
-0.92388
 70
    64
  0
VERTEX
  8
0
 62
     0
 10
0.0
 20
0.0
 30
-1.0
 70
    64
  0
VERTEX
  8
0
 62
     0
 10
0.0
 20
0.0
 30
1.0
 70
    64
  0
VERTEX
  8
0
 62
     0
 10
-0.270598
 20
-0.270598
 30
0.92388
 70
    64
  0
VERTEX
  8
0
 62
     0
 10
-0.5
 20
-0.5
 30
0.707107
 70
    64
  0
VERTEX
  8
0
 62
     0
 10
-0.653281
 20
-0.653281
 30
0.382683
 70
    64
  0
VERTEX
  8
0
 62
     0
 10
-0.707107
 20
-0.707107
 30
0.0
 70
    64
  0
VERTEX
  8
0
 62
     0
 10
-0.653281
 20
-0.653281
 30
-0.382683
 70
    64
  0
VERTEX
  8
0
 62
     0
 10
-0.5
 20
-0.5
 30
-0.707107
 70
    64
  0
VERTEX
  8
0
 62
     0
 10
-0.270598
 20
-0.270598
 30
-0.92388
 70
    64
  0
VERTEX
  8
0
 62
     0
 10
0.0
 20
0.0
 30
-1.0
 70
    64
  0
VERTEX
  8
0
 62
     0
 10
0.0
 20
0.0
 30
1.0
 70
    64
  0
VERTEX
  8
0
 62
     0
 10
0.0
 20
-0.382683
 30
0.92388
 70
    64
  0
VERTEX
  8
0
 62
     0
 10
0.0
 20
-0.707107
 30
0.707107
 70
    64
  0
VERTEX
  8
0
 62
     0
 10
0.0
 20
-0.92388
 30
0.382683
 70
    64
  0
VERTEX
  8
0
 62
     0
 10
0.0
 20
-1.0
 30
0.0
 70
    64
  0
VERTEX
  8
0
 62
     0
 10
0.0
 20
-0.92388
 30
-0.382683
 70
    64
  0
VERTEX
  8
0
 62
     0
 10
0.0
 20
-0.707107
 30
-0.707107
 70
    64
  0
VERTEX
  8
0
 62
     0
 10
0.0
 20
-0.382683
 30
-0.92388
 70
    64
  0
VERTEX
  8
0
 62
     0
 10
0.0
 20
0.0
 30
-1.0
 70
    64
  0
VERTEX
  8
0
 62
     0
 10
0.0
 20
0.0
 30
1.0
 70
    64
  0
VERTEX
  8
0
 62
     0
 10
0.270598
 20
-0.270598
 30
0.92388
 70
    64
  0
VERTEX
  8
0
 62
     0
 10
0.5
 20
-0.5
 30
0.707107
 70
    64
  0
VERTEX
  8
0
 62
     0
 10
0.653281
 20
-0.653281
 30
0.382683
 70
    64
  0
VERTEX
  8
0
 62
     0
 10
0.707107
 20
-0.707107
 30
0.0
 70
    64
  0
VERTEX
  8
0
 62
     0
 10
0.653281
 20
-0.653281
 30
-0.382683
 70
    64
  0
VERTEX
  8
0
 62
     0
 10
0.5
 20
-0.5
 30
-0.707107
 70
    64
  0
VERTEX
  8
0
 62
     0
 10
0.270598
 20
-0.270598
 30
-0.92388
 70
    64
  0
VERTEX
  8
0
 62
     0
 10
0.0
 20
0.0
 30
-1.0
 70
    64
  0
VERTEX
  8
0
 62
     0
 10
0.0
 20
0.0
 30
1.0
 70
    64
  0
VERTEX
  8
0
 62
     0
 10
0.382683
 20
0.0
 30
0.92388
 70
    64
  0
VERTEX
  8
0
 62
     0
 10
0.707107
 20
0.0
 30
0.707107
 70
    64
  0
VERTEX
  8
0
 62
     0
 10
0.92388
 20
0.0
 30
0.382683
 70
    64
  0
VERTEX
  8
0
 62
     0
 10
1.0
 20
0.0
 30
0.0
 70
    64
  0
VERTEX
  8
0
 62
     0
 10
0.92388
 20
0.0
 30
-0.382683
 70
    64
  0
VERTEX
  8
0
 62
     0
 10
0.707107
 20
0.0
 30
-0.707107
 70
    64
  0
VERTEX
  8
0
 62
     0
 10
0.382683
 20
0.0
 30
-0.92388
 70
    64
  0
VERTEX
  8
0
 62
     0
 10
0.0
 20
0.0
 30
-1.0
 70
    64
  0
VERTEX
  8
0
 62
     0
 10
0.0
 20
0.0
 30
1.0
 70
    64
  0
VERTEX
  8
0
 62
     0
 10
0.270598
 20
0.270598
 30
0.92388
 70
    64
  0
VERTEX
  8
0
 62
     0
 10
0.5
 20
0.5
 30
0.707107
 70
    64
  0
VERTEX
  8
0
 62
     0
 10
0.653281
 20
0.653281
 30
0.382683
 70
    64
  0
VERTEX
  8
0
 62
     0
 10
0.707107
 20
0.707107
 30
0.0
 70
    64
  0
VERTEX
  8
0
 62
     0
 10
0.653281
 20
0.653281
 30
-0.382683
 70
    64
  0
VERTEX
  8
0
 62
     0
 10
0.5
 20
0.5
 30
-0.707107
 70
    64
  0
VERTEX
  8
0
 62
     0
 10
0.270598
 20
0.270598
 30
-0.92388
 70
    64
  0
VERTEX
  8
0
 62
     0
 10
0.0
 20
0.0
 30
-1.0
 70
    64
  0
VERTEX
  8
0
 62
     0
 10
0.0
 20
0.0
 30
1.0
 70
    64
  0
VERTEX
  8
0
 62
     0
 10
0.0
 20
0.382683
 30
0.92388
 70
    64
  0
VERTEX
  8
0
 62
     0
 10
0.0
 20
0.707107
 30
0.707107
 70
    64
  0
VERTEX
  8
0
 62
     0
 10
0.0
 20
0.92388
 30
0.382683
 70
    64
  0
VERTEX
  8
0
 62
     0
 10
0.0
 20
1.0
 30
0.0
 70
    64
  0
VERTEX
  8
0
 62
     0
 10
0.0
 20
0.92388
 30
-0.382683
 70
    64
  0
VERTEX
  8
0
 62
     0
 10
0.0
 20
0.707107
 30
-0.707107
 70
    64
  0
VERTEX
  8
0
 62
     0
 10
0.0
 20
0.382683
 30
-0.92388
 70
    64
  0
VERTEX
  8
0
 62
     0
 10
0.0
 20
0.0
 30
-1.0
 70
    64
  0
VERTEX
  8
0
 62
     0
 10
0.0
 20
0.0
 30
1.0
 70
    64
  0
VERTEX
  8
0
 62
     0
 10
-0.270598
 20
0.270598
 30
0.92388
 70
    64
  0
VERTEX
  8
0
 62
     0
 10
-0.5
 20
0.5
 30
0.707107
 70
    64
  0
VERTEX
  8
0
 62
     0
 10
-0.653281
 20
0.653281
 30
0.382683
 70
    64
  0
VERTEX
  8
0
 62
     0
 10
-0.707107
 20
0.707107
 30
0.0
 70
    64
  0
VERTEX
  8
0
 62
     0
 10
-0.653281
 20
0.653281
 30
-0.382683
 70
    64
  0
VERTEX
  8
0
 62
     0
 10
-0.5
 20
0.5
 30
-0.707107
 70
    64
  0
VERTEX
  8
0
 62
     0
 10
-0.270598
 20
0.270598
 30
-0.92388
 70
    64
  0
VERTEX
  8
0
 62
     0
 10
0.0
 20
0.0
 30
-1.0
 70
    64
  0
SEQEND
  8
0
 62
     0
  0
ATTDEF
  8
0
 62
     0
 10
0.0
 20
0.0
 30
0.0
 40
0.2
  1
quadric
  3
type
  2
TYPE
 70
     1
  0
ATTDEF
  8
0
 62
     0
 10
0.0
 20
-0.333333
 30
0.0
 40
0.2
  1
Ellipsoid
  3
name
  2
NAME
 70
     1
  0
ENDBLK
  8
0
  0
ENDSEC
  0
SECTION
  2
ENTITIES
  0
INSERT
  8
CRANE1
 62
     2
 66
     1
  2
DISK_Z
 10
28.613083
 20
-17.726071
 30
27.6
 41
1.76
 42
1.76
 50
345.0
 43
9.0
  0
ATTRIB
  8
0
 62
     0
 10
28.613083
 20
-17.726071
 30
27.6
 40
0.176
  1
Disk_Z
  2
NAME
 70
     1
 50
345.0
  0
ATTRIB
  8
0
 62
     0
 10
28.537163
 20
-18.00941
 30
27.6
 40
0.176
  1
intersection
  2
TYPE
 70
     1
 50
345.0
  0
SEQEND
  8
CRANE1
 62
     2
  0
INSERT
  8
BOOM1
 62
     2
 66
     1
  2
CUBE
 10
-49.624238
 20
51.068482
 30
-16.470942
 41
0.1
 42
10.5
 50
230.0
 43
0.1
210
-0.0000000000000009
220
1.0
230
0.0
  0
ATTRIB
  8
0
 62
     0
 10
-49.624238
 20
51.068482
 30
-16.470942
 40
1.05
  1
intersection
  2
TYPE
 70
     1
 50
230.0
 41
0.009524
210
-0.0000000000000009
220
1.0
230
0.0
  0
ATTRIB
  8
0
 62
     0
 10
-50.964816
 20
52.193361
 30
-16.470942
 40
1.05
  1
Cube
  2
NAME
 70
     1
 50
230.0
 41
0.009524
210
-0.0000000000000009
220
1.0
230
0.0
  0
SEQEND
  8
BOOM1
 62
     2
  0
INSERT
  8
BOOM1
 62
     2
 66
     1
  2
CUBE
 10
-56.452865
 20
58.446366
 30
-16.470942
 41
0.05
 42
1.355775
 50
297.217594
 43
0.05
210
-0.0000000000000009
220
1.0
230
0.0
  0
ATTRIB
  8
0
 62
     0
 10
-56.452865
 20
58.446366
 30
-16.470942
 40
0.135577
  1
intersection
  2
TYPE
 70
     1
 50
297.217594
 41
0.036879
210
-0.0000000000000009
220
1.0
230
0.0
  0
ATTRIB
  8
0
 62
     0
 10
-56.653808
 20
58.343017
 30
-16.470942
 40
0.135577
  1
Cube
  2
NAME
 70
     1
 50
297.217594
 41
0.036879
210
-0.0000000000000009
220
1.0
230
0.0
  0
SEQEND
  8
BOOM1
 62
     2
  0
INSERT
  8
BOOM1
 62
     2
 66
     1
  2
CUBE
 10
-55.644072
 20
57.767708
 30
-16.470942
 41
-0.05
 42
1.355775
 50
342.782406
 43
0.05
210
-0.0000000000000009
220
1.0
230
0.0
  0
ATTRIB
  8
0
 62
     0
 10
-55.644072
 20
57.767708
 30
-16.470942
 40
0.135577
  1
intersection
  2
TYPE
 70
     1
 50
342.782406
 41
0.036879
 71
     2
210
-0.0000000000000009
220
1.0
230
0.0
  0
ATTRIB
  8
0
 62
     0
 10
-55.710957
 20
57.551871
 30
-16.470942
 40
0.135577
  1
Cube
  2
NAME
 70
     1
 50
342.782406
 41
0.036879
 71
     2
210
-0.0000000000000009
220
1.0
230
0.0
  0
SEQEND
  8
BOOM1
 62
     2
  0
INSERT
  8
BOOM1
 62
     2
 66
     1
  2
CUBE
 10
-54.844172
 20
57.096512
 30
-16.470942
 41
0.05
 42
1.355775
 50
297.217594
 43
0.05
210
-0.0000000000000009
220
1.0
230
0.0
  0
ATTRIB
  8
0
 62
     0
 10
-54.844172
 20
57.096512
 30
-16.470942
 40
0.135577
  1
intersection
  2
TYPE
 70
     1
 50
297.217594
 41
0.036879
210
-0.0000000000000009
220
1.0
230
0.0
  0
ATTRIB
  8
0
 62
     0
 10
-55.045114
 20
56.993163
 30
-16.470942
 40
0.135577
  1
Cube
  2
NAME
 70
     1
 50
297.217594
 41
0.036879
210
-0.0000000000000009
220
1.0
230
0.0
  0
SEQEND
  8
BOOM1
 62
     2
  0
INSERT
  8
BOOM1
 62
     2
 66
     1
  2
CUBE
 10
-54.035378
 20
56.417854
 30
-16.470942
 41
-0.05
 42
1.355775
 50
342.782406
 43
0.05
210
-0.0000000000000009
220
1.0
230
0.0
  0
ATTRIB
  8
0
 62
     0
 10
-54.035378
 20
56.417854
 30
-16.470942
 40
0.135577
  1
intersection
  2
TYPE
 70
     1
 50
342.782406
 41
0.036879
 71
     2
210
-0.0000000000000009
220
1.0
230
0.0
  0
ATTRIB
  8
0
 62
     0
 10
-54.102263
 20
56.202017
 30
-16.470942
 40
0.135577
  1
Cube
  2
NAME
 70
     1
 50
342.782406
 41
0.036879
 71
     2
210
-0.0000000000000009
220
1.0
230
0.0
  0
SEQEND
  8
BOOM1
 62
     2
  0
INSERT
  8
BOOM1
 62
     2
 66
     1
  2
CUBE
 10
-53.235478
 20
55.746658
 30
-16.470942
 41
0.05
 42
1.355775
 50
297.217594
 43
0.05
210
-0.0000000000000009
220
1.0
230
0.0
  0
ATTRIB
  8
0
 62
     0
 10
-53.235478
 20
55.746658
 30
-16.470942
 40
0.135577
  1
intersection
  2
TYPE
 70
     1
 50
297.217594
 41
0.036879
210
-0.0000000000000009
220
1.0
230
0.0
  0
ATTRIB
  8
0
 62
     0
 10
-53.436421
 20
55.643309
 30
-16.470942
 40
0.135577
  1
Cube
  2
NAME
 70
     1
 50
297.217594
 41
0.036879
210
-0.0000000000000009
220
1.0
230
0.0
  0
SEQEND
  8
BOOM1
 62
     2
  0
INSERT
  8
BOOM1
 62
     2
 66
     1
  2
CUBE
 10
-52.426685
 20
55.068
 30
-16.470942
 41
-0.05
 42
1.355775
 50
342.782406
 43
0.05
210
-0.0000000000000009
220
1.0
230
0.0
  0
ATTRIB
  8
0
 62
     0
 10
-52.426685
 20
55.068
 30
-16.470942
 40
0.135577
  1
intersection
  2
TYPE
 70
     1
 50
342.782406
 41
0.036879
 71
     2
210
-0.0000000000000009
220
1.0
230
0.0
  0
ATTRIB
  8
0
 62
     0
 10
-52.49357
 20
54.852163
 30
-16.470942
 40
0.135577
  1
Cube
  2
NAME
 70
     1
 50
342.782406
 41
0.036879
 71
     2
210
-0.0000000000000009
220
1.0
230
0.0
  0
SEQEND
  8
BOOM1
 62
     2
  0
INSERT
  8
BOOM1
 62
     2
 66
     1
  2
CUBE
 10
-51.626785
 20
54.396804
 30
-16.470942
 41
0.05
 42
1.355775
 50
297.217594
 43
0.05
210
-0.0000000000000009
220
1.0
230
0.0
  0
ATTRIB
  8
0
 62
     0
 10
-51.626785
 20
54.396804
 30
-16.470942
 40
0.135577
  1
intersection
  2
TYPE
 70
     1
 50
297.217594
 41
0.036879
210
-0.0000000000000009
220
1.0
230
0.0
  0
ATTRIB
  8
0
 62
     0
 10
-51.827728
 20
54.293455
 30
-16.470942
 40
0.135577
  1
Cube
  2
NAME
 70
     1
 50
297.217594
 41
0.036879
210
-0.0000000000000009
220
1.0
230
0.0
  0
SEQEND
  8
BOOM1
 62
     2
  0
INSERT
  8
BOOM1
 62
     2
 66
     1
  2
CUBE
 10
-50.817992
 20
53.718146
 30
-16.470942
 41
-0.05
 42
1.355775
 50
342.782406
 43
0.05
210
-0.0000000000000009
220
1.0
230
0.0
  0
ATTRIB
  8
0
 62
     0
 10
-50.817992
 20
53.718146
 30
-16.470942
 40
0.135577
  1
intersection
  2
TYPE
 70
     1
 50
342.782406
 41
0.036879
 71
     2
210
-0.0000000000000009
220
1.0
230
0.0
  0
ATTRIB
  8
0
 62
     0
 10
-50.884877
 20
53.502309
 30
-16.470942
 40
0.135577
  1
Cube
  2
NAME
 70
     1
 50
342.782406
 41
0.036879
 71
     2
210
-0.0000000000000009
220
1.0
230
0.0
  0
SEQEND
  8
BOOM1
 62
     2
  0
INSERT
  8
BOOM1
 62
     2
 66
     1
  2
CUBE
 10
-50.018092
 20
53.04695
 30
-16.470942
 41
0.05
 42
1.355775
 50
297.217594
 43
0.05
210
-0.0000000000000009
220
1.0
230
0.0
  0
ATTRIB
  8
0
 62
     0
 10
-50.018092
 20
53.04695
 30
-16.470942
 40
0.135577
  1
intersection
  2
TYPE
 70
     1
 50
297.217594
 41
0.036879
210
-0.0000000000000009
220
1.0
230
0.0
  0
ATTRIB
  8
0
 62
     0
 10
-50.219034
 20
52.943601
 30
-16.470942
 40
0.135577
  1
Cube
  2
NAME
 70
     1
 50
297.217594
 41
0.036879
210
-0.0000000000000009
220
1.0
230
0.0
  0
SEQEND
  8
BOOM1
 62
     2
  0
INSERT
  8
BOOM1
 62
     2
 66
     1
  2
CUBE
 10
-49.209298
 20
52.368292
 30
-16.470942
 41
-0.05
 42
1.355775
 50
342.782406
 43
0.05
210
-0.0000000000000009
220
1.0
230
0.0
  0
ATTRIB
  8
0
 62
     0
 10
-49.209298
 20
52.368292
 30
-16.470942
 40
0.135577
  1
intersection
  2
TYPE
 70
     1
 50
342.782406
 41
0.036879
 71
     2
210
-0.0000000000000009
220
1.0
230
0.0
  0
ATTRIB
  8
0
 62
     0
 10
-49.276183
 20
52.152455
 30
-16.470942
 40
0.135577
  1
Cube
  2
NAME
 70
     1
 50
342.782406
 41
0.036879
 71
     2
210
-0.0000000000000009
220
1.0
230
0.0
  0
SEQEND
  8
BOOM1
 62
     2
  0
INSERT
  8
BOOM1
 62
     2
 66
     1
  2
CUBE
 10
-48.409398
 20
51.697096
 30
-16.470942
 41
0.05
 42
1.355775
 50
297.217594
 43
0.05
210
-0.0000000000000009
220
1.0
230
0.0
  0
ATTRIB
  8
0
 62
     0
 10
-48.409398
 20
51.697096
 30
-16.470942
 40
0.135577
  1
intersection
  2
TYPE
 70
     1
 50
297.217594
 41
0.036879
210
-0.0000000000000009
220
1.0
230
0.0
  0
ATTRIB
  8
0
 62
     0
 10
-48.610341
 20
51.593747
 30
-16.470942
 40
0.135577
  1
Cube
  2
NAME
 70
     1
 50
297.217594
 41
0.036879
210
-0.0000000000000009
220
1.0
230
0.0
  0
SEQEND
  8
BOOM1
 62
     2
  0
INSERT
  8
BOOM1
 62
     2
 66
     1
  2
CUBE
 10
-47.600605
 20
51.018438
 30
-16.470942
 41
-0.05
 42
1.355775
 50
342.782406
 43
0.05
210
-0.0000000000000009
220
1.0
230
0.0
  0
ATTRIB
  8
0
 62
     0
 10
-47.600605
 20
51.018438
 30
-16.470942
 40
0.135577
  1
intersection
  2
TYPE
 70
     1
 50
342.782406
 41
0.036879
 71
     2
210
-0.0000000000000009
220
1.0
230
0.0
  0
ATTRIB
  8
0
 62
     0
 10
-47.66749
 20
50.802601
 30
-16.470942
 40
0.135577
  1
Cube
  2
NAME
 70
     1
 50
342.782406
 41
0.036879
 71
     2
210
-0.0000000000000009
220
1.0
230
0.0
  0
SEQEND
  8
BOOM1
 62
     2
  0
INSERT
  8
BOOM1
 62
     2
 66
     1
  2
CUBE
 10
-46.800705
 20
50.347242
 30
-16.470942
 41
0.05
 42
1.355775
 50
297.217594
 43
0.05
210
-0.0000000000000009
220
1.0
230
0.0
  0
ATTRIB
  8
0
 62
     0
 10
-46.800705
 20
50.347242
 30
-16.470942
 40
0.135577
  1
intersection
  2
TYPE
 70
     1
 50
297.217594
 41
0.036879
210
-0.0000000000000009
220
1.0
230
0.0
  0
ATTRIB
  8
0
 62
     0
 10
-47.001648
 20
50.243893
 30
-16.470942
 40
0.135577
  1
Cube
  2
NAME
 70
     1
 50
297.217594
 41
0.036879
210
-0.0000000000000009
220
1.0
230
0.0
  0
SEQEND
  8
BOOM1
 62
     2
  0
INSERT
  8
BOOM1
 62
     2
 66
     1
  2
CUBE
 10
-45.991912
 20
49.668584
 30
-16.470942
 41
-0.05
 42
1.355775
 50
342.782406
 43
0.05
210
-0.0000000000000009
220
1.0
230
0.0
  0
ATTRIB
  8
0
 62
     0
 10
-45.991912
 20
49.668584
 30
-16.470942
 40
0.135577
  1
intersection
  2
TYPE
 70
     1
 50
342.782406
 41
0.036879
 71
     2
210
-0.0000000000000009
220
1.0
230
0.0
  0
ATTRIB
  8
0
 62
     0
 10
-46.058797
 20
49.452747
 30
-16.470942
 40
0.135577
  1
Cube
  2
NAME
 70
     1
 50
342.782406
 41
0.036879
 71
     2
210
-0.0000000000000009
220
1.0
230
0.0
  0
SEQEND
  8
BOOM1
 62
     2
  0
INSERT
  8
BOOM1
 62
     2
 66
     1
  2
CUBE
 10
-45.192012
 20
48.997388
 30
-16.470942
 41
0.05
 42
1.355775
 50
297.217594
 43
0.05
210
-0.0000000000000009
220
1.0
230
0.0
  0
ATTRIB
  8
0
 62
     0
 10
-45.192012
 20
48.997388
 30
-16.470942
 40
0.135577
  1
intersection
  2
TYPE
 70
     1
 50
297.217594
 41
0.036879
210
-0.0000000000000009
220
1.0
230
0.0
  0
ATTRIB
  8
0
 62
     0
 10
-45.392954
 20
48.894039
 30
-16.470942
 40
0.135577
  1
Cube
  2
NAME
 70
     1
 50
297.217594
 41
0.036879
210
-0.0000000000000009
220
1.0
230
0.0
  0
SEQEND
  8
BOOM1
 62
     2
  0
INSERT
  8
BOOM1
 62
     2
 66
     1
  2
CUBE
 10
-44.383218
 20
48.31873
 30
-16.470942
 41
-0.05
 42
1.355775
 50
342.782406
 43
0.05
210
-0.0000000000000009
220
1.0
230
0.0
  0
ATTRIB
  8
0
 62
     0
 10
-44.383218
 20
48.31873
 30
-16.470942
 40
0.135577
  1
intersection
  2
TYPE
 70
     1
 50
342.782406
 41
0.036879
 71
     2
210
-0.0000000000000009
220
1.0
230
0.0
  0
ATTRIB
  8
0
 62
     0
 10
-44.450103
 20
48.102893
 30
-16.470942
 40
0.135577
  1
Cube
  2
NAME
 70
     1
 50
342.782406
 41
0.036879
 71
     2
210
-0.0000000000000009
220
1.0
230
0.0
  0
SEQEND
  8
BOOM1
 62
     2
  0
INSERT
  8
BOOM1
 62
     2
 66
     1
  2
CUBE
 10
-43.583318
 20
47.647534
 30
-16.470942
 41
0.05
 42
1.355775
 50
297.217594
 43
0.05
210
-0.0000000000000009
220
1.0
230
0.0
  0
ATTRIB
  8
0
 62
     0
 10
-43.583318
 20
47.647534
 30
-16.470942
 40
0.135577
  1
intersection
  2
TYPE
 70
     1
 50
297.217594
 41
0.036879
210
-0.0000000000000009
220
1.0
230
0.0
  0
ATTRIB
  8
0
 62
     0
 10
-43.784261
 20
47.544185
 30
-16.470942
 40
0.135577
  1
Cube
  2
NAME
 70
     1
 50
297.217594
 41
0.036879
210
-0.0000000000000009
220
1.0
230
0.0
  0
SEQEND
  8
BOOM1
 62
     2
  0
INSERT
  8
BOOM1
 62
     2
 66
     1
  2
CUBE
 10
-42.774525
 20
46.968876
 30
-16.470942
 41
-0.05
 42
1.355775
 50
342.782406
 43
0.05
210
-0.0000000000000009
220
1.0
230
0.0
  0
ATTRIB
  8
0
 62
     0
 10
-42.774525
 20
46.968876
 30
-16.470942
 40
0.135577
  1
intersection
  2
TYPE
 70
     1
 50
342.782406
 41
0.036879
 71
     2
210
-0.0000000000000009
220
1.0
230
0.0
  0
ATTRIB
  8
0
 62
     0
 10
-42.84141
 20
46.753039
 30
-16.470942
 40
0.135577
  1
Cube
  2
NAME
 70
     1
 50
342.782406
 41
0.036879
 71
     2
210
-0.0000000000000009
220
1.0
230
0.0
  0
SEQEND
  8
BOOM1
 62
     2
  0
INSERT
  8
BOOM1
 62
     2
 66
     1
  2
CUBE
 10
-41.974625
 20
46.29768
 30
-16.470942
 41
0.05
 42
1.355775
 50
297.217594
 43
0.05
210
-0.0000000000000009
220
1.0
230
0.0
  0
ATTRIB
  8
0
 62
     0
 10
-41.974625
 20
46.29768
 30
-16.470942
 40
0.135577
  1
intersection
  2
TYPE
 70
     1
 50
297.217594
 41
0.036879
210
-0.0000000000000009
220
1.0
230
0.0
  0
ATTRIB
  8
0
 62
     0
 10
-42.175568
 20
46.194331
 30
-16.470942
 40
0.135577
  1
Cube
  2
NAME
 70
     1
 50
297.217594
 41
0.036879
210
-0.0000000000000009
220
1.0
230
0.0
  0
SEQEND
  8
BOOM1
 62
     2
  0
INSERT
  8
BOOM1
 62
     2
 66
     1
  2
CUBE
 10
-41.165832
 20
45.619022
 30
-16.470942
 41
-0.05
 42
1.355775
 50
342.782406
 43
0.05
210
-0.0000000000000009
220
1.0
230
0.0
  0
ATTRIB
  8
0
 62
     0
 10
-41.165832
 20
45.619022
 30
-16.470942
 40
0.135577
  1
intersection
  2
TYPE
 70
     1
 50
342.782406
 41
0.036879
 71
     2
210
-0.0000000000000009
220
1.0
230
0.0
  0
ATTRIB
  8
0
 62
     0
 10
-41.232717
 20
45.403185
 30
-16.470942
 40
0.135577
  1
Cube
  2
NAME
 70
     1
 50
342.782406
 41
0.036879
 71
     2
210
-0.0000000000000009
220
1.0
230
0.0
  0
SEQEND
  8
BOOM1
 62
     2
  0
INSERT
  8
BOOM1
 62
     2
 66
     1
  2
CUBE
 10
-56.834198
 20
58.755076
 30
-16.470942
 41
0.1
 42
1.244986
 50
320.0
 43
0.1
210
-0.0000000000000009
220
1.0
230
0.0
  0
ATTRIB
  8
0
 62
     0
 10
-65.359668
 20
114.056811
 30
-16.470942
 40
0.124499
  1
intersection
  2
TYPE
 70
     1
 50
320.0
 41
0.080322
210
-0.0000000000000009
220
1.0
230
0.0
  0
ATTRIB
  8
0
 62
     0
 10
-65.493044
 20
113.897859
 30
-16.470942
 40
0.124499
  1
Cube
  2
NAME
 70
     1
 50
320.0
 41
0.080322
210
-0.0000000000000009
220
1.0
230
0.0
  0
SEQEND
  8
BOOM1
 62
     2
  0
INSERT
  8
BOOM1
 62
     2
 66
     1
  2
CUBE
 10
-40.777792
 20
45.278333
 30
-16.470942
 41
0.1
 42
1.252791
 50
320.0
 43
0.1
210
-0.0000000000000009
220
1.0
230
0.0
  0
ATTRIB
  8
0
 62
     0
 10
-24.602338
 20
31.705516
 30
4.644612
 40
0.125279
  1
intersection
  2
TYPE
 70
     1
 50
320.0
 41
0.079822
210
-0.0000000000000009
220
1.0
230
0.0
  0
ATTRIB
  8
0
 62
     0
 10
-24.736551
 20
31.545567
 30
4.644612
 40
0.125279
  1
Cube
  2
NAME
 70
     1
 50
320.0
 41
0.079822
210
-0.0000000000000009
220
1.0
230
0.0
  0
SEQEND
  8
BOOM1
 62
     2
  0
INSERT
  8
BOOM1
 62
     2
 66
     1
  2
CUBE
 10
-17.709386
 20
65.058199
 30
-7.223756
 41
-0.05
 42
1.355775
 50
292.782406
 43
0.05
210
0.6427876096865396
220
0.0000000000000006
230
-0.7660444431189779
  0
ATTRIB
  8
0
 62
     0
 10
-17.709386
 20
65.058199
 30
-7.223756
 40
0.135577
  1
intersection
  2
TYPE
 70
     1
 50
292.782406
 41
0.036879
 71
     2
210
0.6427876096865396
220
0.0000000000000006
230
-0.7660444431189779
  0
ATTRIB
  8
0
 62
     0
 10
-17.91772
 20
64.970699
 30
-7.223756
 40
0.135577
  1
Cube
  2
NAME
 70
     1
 50
292.782406
 41
0.036879
 71
     2
210
0.6427876096865396
220
0.0000000000000006
230
-0.7660444431189779
  0
SEQEND
  8
BOOM1
 62
     2
  0
INSERT
  8
BOOM1
 62
     2
 66
     1
  2
CUBE
 10
-18.971817
 20
70.84056
 30
-7.223756
 41
0.1
 42
10.5
 50
180.0
 43
0.1
210
0.6427876096865396
220
0.0000000000000006
230
-0.7660444431189779
  0
ATTRIB
  8
0
 62
     0
 10
-18.971817
 20
70.84056
 30
-7.223756
 40
1.05
  1
intersection
  2
TYPE
 70
     1
 50
180.0
 41
0.009524
210
0.6427876096865396
220
0.0000000000000006
230
-0.766044443118978
  0
ATTRIB
  8
0
 62
     0
 10
-18.971817
 20
72.59056
 30
-7.223756
 40
1.05
  1
Cube
  2
NAME
 70
     1
 50
180.0
 41
0.009524
210
0.6427876096865396
220
0.0000000000000006
230
-0.766044443118978
  0
SEQEND
  8
BOOM1
 62
     2
  0
INSERT
  8
BOOM1
 62
     2
 66
     1
  2
CUBE
 10
-17.709386
 20
75.558199
 30
-7.223756
 41
-0.05
 42
1.355775
 50
292.782406
 43
0.05
210
0.6427876096865396
220
0.0000000000000006
230
-0.7660444431189779
  0
ATTRIB
  8
0
 62
     0
 10
-17.709386
 20
75.558199
 30
-7.223756
 40
0.135577
  1
intersection
  2
TYPE
 70
     1
 50
292.782406
 41
0.036879
 71
     2
210
0.6427876096865396
220
0.0000000000000006
230
-0.7660444431189779
  0
ATTRIB
  8
0
 62
     0
 10
-17.91772
 20
75.470699
 30
-7.223756
 40
0.135577
  1
Cube
  2
NAME
 70
     1
 50
292.782406
 41
0.036879
 71
     2
210
0.6427876096865396
220
0.0000000000000006
230
-0.7660444431189779
  0
SEQEND
  8
BOOM1
 62
     2
  0
INSERT
  8
BOOM1
 62
     2
 66
     1
  2
CUBE
 10
-17.709386
 20
80.814003
 30
-7.223756
 41
0.05
 42
1.355775
 50
247.217594
 43
0.05
210
0.6427876096865396
220
0.0000000000000006
230
-0.7660444431189779
  0
ATTRIB
  8
0
 62
     0
 10
-52.101537
 20
39.71695
 30
-9.715126
 40
0.135577
  1
intersection
  2
TYPE
 70
     1
 50
247.217594
 41
0.036879
210
0.6427876096865396
220
0.0000000000000006
230
-0.7660444431189779
  0
ATTRIB
  8
0
 62
     0
 10
-52.309871
 20
39.80445
 30
-9.715126
 40
0.135577
  1
Cube
  2
NAME
 70
     1
 50
247.217594
 41
0.036879
210
0.6427876096865396
220
0.0000000000000006
230
-0.7660444431189779
  0
SEQEND
  8
BOOM1
 62
     2
  0
INSERT
  8
BOOM1
 62
     2
 66
     1
  2
CUBE
 10
-17.718017
 20
81.304556
 30
-7.223756
 41
0.1
 42
1.244986
 50
270.0
 43
0.1
210
0.6427876096865396
220
0.0000000000000006
230
-0.7660444431189779
  0
ATTRIB
  8
0
 62
     0
 10
-17.718017
 20
81.304556
 30
-7.223756
 40
0.124499
  1
intersection
  2
TYPE
 70
     1
 50
270.0
 41
0.080322
210
0.6427876096865396
220
0.0000000000000006
230
-0.766044443118978
  0
ATTRIB
  8
0
 62
     0
 10
-17.925514
 20
81.304556
 30
-7.223756
 40
0.124499
  1
Cube
  2
NAME
 70
     1
 50
270.0
 41
0.080322
210
0.6427876096865396
220
0.0000000000000006
230
-0.766044443118978
  0
SEQEND
  8
BOOM1
 62
     2
  0
INSERT
  8
BOOM1
 62
     2
 66
     1
  2
CUBE
 10
-17.709386
 20
78.714003
 30
-7.223756
 41
0.05
 42
1.355775
 50
247.217594
 43
0.05
210
0.6427876096865396
220
0.0000000000000006
230
-0.7660444431189779
  0
ATTRIB
  8
0
 62
     0
 10
-17.709386
 20
78.714003
 30
-7.223756
 40
0.135577
  1
intersection
  2
TYPE
 70
     1
 50
247.217594
 41
0.036879
210
0.6427876096865396
220
0.0000000000000006
230
-0.7660444431189779
  0
ATTRIB
  8
0
 62
     0
 10
-17.91772
 20
78.801503
 30
-7.223756
 40
0.135577
  1
Cube
  2
NAME
 70
     1
 50
247.217594
 41
0.036879
210
0.6427876096865396
220
0.0000000000000006
230
-0.7660444431189779
  0
SEQEND
  8
BOOM1
 62
     2
  0
INSERT
  8
BOOM1
 62
     2
 66
     1
  2
CUBE
 10
-17.709386
 20
79.758199
 30
-7.223756
 41
-0.05
 42
1.355775
 50
292.782406
 43
0.05
210
0.6427876096865396
220
0.0000000000000006
230
-0.7660444431189779
  0
ATTRIB
  8
0
 62
     0
 10
-17.709386
 20
79.758199
 30
-7.223756
 40
0.135577
  1
intersection
  2
TYPE
 70
     1
 50
292.782406
 41
0.036879
 71
     2
210
0.6427876096865396
220
0.0000000000000006
230
-0.7660444431189779
  0
ATTRIB
  8
0
 62
     0
 10
-17.91772
 20
79.670699
 30
-7.223756
 40
0.135577
  1
Cube
  2
NAME
 70
     1
 50
292.782406
 41
0.036879
 71
     2
210
0.6427876096865396
220
0.0000000000000006
230
-0.7660444431189779
  0
SEQEND
  8
BOOM1
 62
     2
  0
INSERT
  8
BOOM1
 62
     2
 66
     1
  2
CUBE
 10
-17.709386
 20
76.614003
 30
-7.223756
 41
0.05
 42
1.355775
 50
247.217594
 43
0.05
210
0.6427876096865396
220
0.0000000000000006
230
-0.7660444431189779
  0
ATTRIB
  8
0
 62
     0
 10
-17.709386
 20
76.614003
 30
-7.223756
 40
0.135577
  1
intersection
  2
TYPE
 70
     1
 50
247.217594
 41
0.036879
210
0.6427876096865396
220
0.0000000000000006
230
-0.7660444431189779
  0
ATTRIB
  8
0
 62
     0
 10
-17.91772
 20
76.701503
 30
-7.223756
 40
0.135577
  1
Cube
  2
NAME
 70
     1
 50
247.217594
 41
0.036879
210
0.6427876096865396
220
0.0000000000000006
230
-0.7660444431189779
  0
SEQEND
  8
BOOM1
 62
     2
  0
INSERT
  8
BOOM1
 62
     2
 66
     1
  2
CUBE
 10
-17.709386
 20
77.658199
 30
-7.223756
 41
-0.05
 42
1.355775
 50
292.782406
 43
0.05
210
0.6427876096865396
220
0.0000000000000006
230
-0.7660444431189779
  0
ATTRIB
  8
0
 62
     0
 10
-17.709386
 20
77.658199
 30
-7.223756
 40
0.135577
  1
intersection
  2
TYPE
 70
     1
 50
292.782406
 41
0.036879
 71
     2
210
0.6427876096865396
220
0.0000000000000006
230
-0.7660444431189779
  0
ATTRIB
  8
0
 62
     0
 10
-17.91772
 20
77.570699
 30
-7.223756
 40
0.135577
  1
Cube
  2
NAME
 70
     1
 50
292.782406
 41
0.036879
 71
     2
210
0.6427876096865396
220
0.0000000000000006
230
-0.7660444431189779
  0
SEQEND
  8
BOOM1
 62
     2
  0
INSERT
  8
BOOM1
 62
     2
 66
     1
  2
CUBE
 10
-17.709386
 20
70.314003
 30
-7.223756
 41
0.05
 42
1.355775
 50
247.217594
 43
0.05
210
0.6427876096865396
220
0.0000000000000006
230
-0.7660444431189779
  0
ATTRIB
  8
0
 62
     0
 10
-17.709386
 20
70.314003
 30
-7.223756
 40
0.135577
  1
intersection
  2
TYPE
 70
     1
 50
247.217594
 41
0.036879
210
0.6427876096865396
220
0.0000000000000006
230
-0.7660444431189779
  0
ATTRIB
  8
0
 62
     0
 10
-17.91772
 20
70.401503
 30
-7.223756
 40
0.135577
  1
Cube
  2
NAME
 70
     1
 50
247.217594
 41
0.036879
210
0.6427876096865396
220
0.0000000000000006
230
-0.7660444431189779
  0
SEQEND
  8
BOOM1
 62
     2
  0
INSERT
  8
BOOM1
 62
     2
 66
     1
  2
CUBE
 10
-17.709386
 20
73.458199
 30
-7.223756
 41
-0.05
 42
1.355775
 50
292.782406
 43
0.05
210
0.6427876096865396
220
0.0000000000000006
230
-0.7660444431189779
  0
ATTRIB
  8
0
 62
     0
 10
-17.709386
 20
73.458199
 30
-7.223756
 40
0.135577
  1
intersection
  2
TYPE
 70
     1
 50
292.782406
 41
0.036879
 71
     2
210
0.6427876096865396
220
0.0000000000000006
230
-0.7660444431189779
  0
ATTRIB
  8
0
 62
     0
 10
-17.91772
 20
73.370699
 30
-7.223756
 40
0.135577
  1
Cube
  2
NAME
 70
     1
 50
292.782406
 41
0.036879
 71
     2
210
0.6427876096865396
220
0.0000000000000006
230
-0.7660444431189779
  0
SEQEND
  8
BOOM1
 62
     2
  0
INSERT
  8
BOOM1
 62
     2
 66
     1
  2
CUBE
 10
-17.709386
 20
74.514003
 30
-7.223756
 41
0.05
 42
1.355775
 50
247.217594
 43
0.05
210
0.6427876096865396
220
0.0000000000000006
230
-0.7660444431189779
  0
ATTRIB
  8
0
 62
     0
 10
-17.709386
 20
74.514003
 30
-7.223756
 40
0.135577
  1
intersection
  2
TYPE
 70
     1
 50
247.217594
 41
0.036879
210
0.6427876096865396
220
0.0000000000000006
230
-0.7660444431189779
  0
ATTRIB
  8
0
 62
     0
 10
-17.91772
 20
74.601503
 30
-7.223756
 40
0.135577
  1
Cube
  2
NAME
 70
     1
 50
247.217594
 41
0.036879
210
0.6427876096865396
220
0.0000000000000006
230
-0.7660444431189779
  0
SEQEND
  8
BOOM1
 62
     2
  0
INSERT
  8
BOOM1
 62
     2
 66
     1
  2
CUBE
 10
-17.709386
 20
71.358199
 30
-7.223756
 41
-0.05
 42
1.355775
 50
292.782406
 43
0.05
210
0.6427876096865396
220
0.0000000000000006
230
-0.7660444431189779
  0
ATTRIB
  8
0
 62
     0
 10
-17.709386
 20
71.358199
 30
-7.223756
 40
0.135577
  1
intersection
  2
TYPE
 70
     1
 50
292.782406
 41
0.036879
 71
     2
210
0.6427876096865396
220
0.0000000000000006
230
-0.7660444431189779
  0
ATTRIB
  8
0
 62
     0
 10
-17.91772
 20
71.270699
 30
-7.223756
 40
0.135577
  1
Cube
  2
NAME
 70
     1
 50
292.782406
 41
0.036879
 71
     2
210
0.6427876096865396
220
0.0000000000000006
230
-0.7660444431189779
  0
SEQEND
  8
BOOM1
 62
     2
  0
INSERT
  8
BOOM1
 62
     2
 66
     1
  2
CUBE
 10
-17.709386
 20
72.414003
 30
-7.223756
 41
0.05
 42
1.355775
 50
247.217594
 43
0.05
210
0.6427876096865396
220
0.0000000000000006
230
-0.7660444431189779
  0
ATTRIB
  8
0
 62
     0
 10
-17.709386
 20
72.414003
 30
-7.223756
 40
0.135577
  1
intersection
  2
TYPE
 70
     1
 50
247.217594
 41
0.036879
210
0.6427876096865396
220
0.0000000000000006
230
-0.7660444431189779
  0
ATTRIB
  8
0
 62
     0
 10
-17.91772
 20
72.501503
 30
-7.223756
 40
0.135577
  1
Cube
  2
NAME
 70
     1
 50
247.217594
 41
0.036879
210
0.6427876096865396
220
0.0000000000000006
230
-0.7660444431189779
  0
SEQEND
  8
BOOM1
 62
     2
  0
INSERT
  8
BOOM1
 62
     2
 66
     1
  2
CUBE
 10
-17.709386
 20
67.158199
 30
-7.223756
 41
-0.05
 42
1.355775
 50
292.782406
 43
0.05
210
0.6427876096865396
220
0.0000000000000006
230
-0.7660444431189779
  0
ATTRIB
  8
0
 62
     0
 10
-17.709386
 20
67.158199
 30
-7.223756
 40
0.135577
  1
intersection
  2
TYPE
 70
     1
 50
292.782406
 41
0.036879
 71
     2
210
0.6427876096865396
220
0.0000000000000006
230
-0.7660444431189779
  0
ATTRIB
  8
0
 62
     0
 10
-17.91772
 20
67.070699
 30
-7.223756
 40
0.135577
  1
Cube
  2
NAME
 70
     1
 50
292.782406
 41
0.036879
 71
     2
210
0.6427876096865396
220
0.0000000000000006
230
-0.7660444431189779
  0
SEQEND
  8
BOOM1
 62
     2
  0
INSERT
  8
BOOM1
 62
     2
 66
     1
  2
CUBE
 10
-17.709386
 20
68.214003
 30
-7.223756
 41
0.05
 42
1.355775
 50
247.217594
 43
0.05
210
0.6427876096865396
220
0.0000000000000006
230
-0.7660444431189779
  0
ATTRIB
  8
0
 62
     0
 10
-17.709386
 20
68.214003
 30
-7.223756
 40
0.135577
  1
intersection
  2
TYPE
 70
     1
 50
247.217594
 41
0.036879
210
0.6427876096865396
220
0.0000000000000006
230
-0.7660444431189779
  0
ATTRIB
  8
0
 62
     0
 10
-17.91772
 20
68.301503
 30
-7.223756
 40
0.135577
  1
Cube
  2
NAME
 70
     1
 50
247.217594
 41
0.036879
210
0.6427876096865396
220
0.0000000000000006
230
-0.7660444431189779
  0
SEQEND
  8
BOOM1
 62
     2
  0
INSERT
  8
BOOM1
 62
     2
 66
     1
  2
CUBE
 10
-17.709386
 20
69.258199
 30
-7.223756
 41
-0.05
 42
1.355775
 50
292.782406
 43
0.05
210
0.6427876096865396
220
0.0000000000000006
230
-0.7660444431189779
  0
ATTRIB
  8
0
 62
     0
 10
-17.709386
 20
69.258199
 30
-7.223756
 40
0.135577
  1
intersection
  2
TYPE
 70
     1
 50
292.782406
 41
0.036879
 71
     2
210
0.6427876096865396
220
0.0000000000000006
230
-0.7660444431189779
  0
ATTRIB
  8
0
 62
     0
 10
-17.91772
 20
69.170699
 30
-7.223756
 40
0.135577
  1
Cube
  2
NAME
 70
     1
 50
292.782406
 41
0.036879
 71
     2
210
0.6427876096865396
220
0.0000000000000006
230
-0.7660444431189779
  0
SEQEND
  8
BOOM1
 62
     2
  0
INSERT
  8
BOOM1
 62
     2
 66
     1
  2
CUBE
 10
-17.709386
 20
66.114003
 30
-7.223756
 41
0.05
 42
1.355775
 50
247.217594
 43
0.05
210
0.6427876096865396
220
0.0000000000000006
230
-0.7660444431189779
  0
ATTRIB
  8
0
 62
     0
 10
-17.709386
 20
66.114003
 30
-7.223756
 40
0.135577
  1
intersection
  2
TYPE
 70
     1
 50
247.217594
 41
0.036879
210
0.6427876096865396
220
0.0000000000000006
230
-0.7660444431189779
  0
ATTRIB
  8
0
 62
     0
 10
-17.91772
 20
66.201503
 30
-7.223756
 40
0.135577
  1
Cube
  2
NAME
 70
     1
 50
247.217594
 41
0.036879
210
0.6427876096865396
220
0.0000000000000006
230
-0.7660444431189779
  0
SEQEND
  8
BOOM1
 62
     2
  0
INSERT
  8
BOOM1
 62
     2
 66
     1
  2
CUBE
 10
-17.709386
 20
61.914003
 30
-7.223756
 41
0.05
 42
1.355775
 50
247.217594
 43
0.05
210
0.6427876096865396
220
0.0000000000000006
230
-0.7660444431189779
  0
ATTRIB
  8
0
 62
     0
 10
-17.709386
 20
61.914003
 30
-7.223756
 40
0.135577
  1
intersection
  2
TYPE
 70
     1
 50
247.217594
 41
0.036879
210
0.6427876096865396
220
0.0000000000000006
230
-0.7660444431189779
  0
ATTRIB
  8
0
 62
     0
 10
-17.91772
 20
62.001503
 30
-7.223756
 40
0.135577
  1
Cube
  2
NAME
 70
     1
 50
247.217594
 41
0.036879
210
0.6427876096865396
220
0.0000000000000006
230
-0.7660444431189779
  0
SEQEND
  8
BOOM1
 62
     2
  0
INSERT
  8
BOOM1
 62
     2
 66
     1
  2
CUBE
 10
-17.709386
 20
64.014003
 30
-7.223756
 41
0.05
 42
1.355775
 50
247.217594
 43
0.05
210
0.6427876096865396
220
0.0000000000000006
230
-0.7660444431189779
  0
ATTRIB
  8
0
 62
     0
 10
-17.709386
 20
64.014003
 30
-7.223756
 40
0.135577
  1
intersection
  2
TYPE
 70
     1
 50
247.217594
 41
0.036879
210
0.6427876096865396
220
0.0000000000000006
230
-0.7660444431189779
  0
ATTRIB
  8
0
 62
     0
 10
-17.91772
 20
64.101503
 30
-7.223756
 40
0.135577
  1
Cube
  2
NAME
 70
     1
 50
247.217594
 41
0.036879
210
0.6427876096865396
220
0.0000000000000006
230
-0.7660444431189779
  0
SEQEND
  8
BOOM1
 62
     2
  0
INSERT
  8
BOOM1
 62
     2
 66
     1
  2
CUBE
 10
-17.709386
 20
62.958199
 30
-7.223756
 41
-0.05
 42
1.355775
 50
292.782406
 43
0.05
210
0.6427876096865396
220
0.0000000000000006
230
-0.7660444431189779
  0
ATTRIB
  8
0
 62
     0
 10
-17.709386
 20
62.958199
 30
-7.223756
 40
0.135577
  1
intersection
  2
TYPE
 70
     1
 50
292.782406
 41
0.036879
 71
     2
210
0.6427876096865396
220
0.0000000000000006
230
-0.7660444431189779
  0
ATTRIB
  8
0
 62
     0
 10
-17.91772
 20
62.870699
 30
-7.223756
 40
0.135577
  1
Cube
  2
NAME
 70
     1
 50
292.782406
 41
0.036879
 71
     2
210
0.6427876096865396
220
0.0000000000000006
230
-0.7660444431189779
  0
SEQEND
  8
BOOM1
 62
     2
  0
INSERT
  8
BOOM1
 62
     2
 66
     1
  2
CUBE
 10
-17.709386
 20
60.858199
 30
-7.223756
 41
-0.05
 42
1.355775
 50
292.782406
 43
0.05
210
0.6427876096865396
220
0.0000000000000006
230
-0.7660444431189779
  0
ATTRIB
  8
0
 62
     0
 10
-17.709386
 20
60.858199
 30
-7.223756
 40
0.135577
  1
intersection
  2
TYPE
 70
     1
 50
292.782406
 41
0.036879
 71
     2
210
0.6427876096865396
220
0.0000000000000006
230
-0.7660444431189779
  0
ATTRIB
  8
0
 62
     0
 10
-17.91772
 20
60.770699
 30
-7.223756
 40
0.135577
  1
Cube
  2
NAME
 70
     1
 50
292.782406
 41
0.036879
 71
     2
210
0.6427876096865396
220
0.0000000000000006
230
-0.7660444431189779
  0
SEQEND
  8
BOOM1
 62
     2
  0
INSERT
  8
BOOM1
 62
     2
 66
     1
  2
CUBE
 10
-17.720942
 20
60.341952
 30
-7.223756
 41
0.1
 42
1.252791
 50
270.0
 43
0.1
210
0.6427876096865396
220
0.0000000000000006
230
-0.7660444431189779
  0
ATTRIB
  8
0
 62
     0
 10
-17.720942
 20
39.226397
 30
13.891799
 40
0.125279
  1
intersection
  2
TYPE
 70
     1
 50
270.0
 41
0.079822
210
0.6427876096865396
220
0.0000000000000006
230
-0.766044443118978
  0
ATTRIB
  8
0
 62
     0
 10
-17.929741
 20
39.226397
 30
13.891799
 40
0.125279
  1
Cube
  2
NAME
 70
     1
 50
270.0
 41
0.079822
210
0.6427876096865396
220
0.0000000000000006
230
-0.766044443118978
  0
SEQEND
  8
BOOM1
 62
     2
  0
INSERT
  8
BOOM1
 62
     2
 66
     1
  2
CUBE
 10
44.398074
 20
48.301026
 30
18.970942
 41
-0.05
 42
1.355775
 50
242.782406
 43
0.05
210
0.0000000000000009
220
-1.0
230
0.0
  0
ATTRIB
  8
0
 62
     0
 10
44.398074
 20
48.301026
 30
18.970942
 40
0.135577
  1
intersection
  2
TYPE
 70
     1
 50
242.782406
 41
0.036879
 71
     2
210
0.0000000000000009
220
-1.0
230
0.0
  0
ATTRIB
  8
0
 62
     0
 10
44.197131
 20
48.404374
 30
18.970942
 40
0.135577
  1
Cube
  2
NAME
 70
     1
 50
242.782406
 41
0.036879
 71
     2
210
0.0000000000000009
220
-1.0
230
0.0
  0
SEQEND
  8
BOOM1
 62
     2
  0
INSERT
  8
BOOM1
 62
     2
 66
     1
  2
CUBE
 10
48.016145
 20
52.984933
 30
18.970942
 41
0.1
 42
10.5
 50
130.0
 43
0.1
210
0.0000000000000009
220
-1.0
230
0.0
  0
ATTRIB
  8
0
 62
     0
 10
48.016145
 20
52.984933
 30
18.970942
 40
1.05
  1
intersection
  2
TYPE
 70
     1
 50
130.0
 41
0.009524
210
0.0000000000000009
220
-1.0
230
0.0
  0
ATTRIB
  8
0
 62
     0
 10
49.356723
 20
54.109812
 30
18.970942
 40
1.05
  1
Cube
  2
NAME
 70
     1
 50
130.0
 41
0.009524
210
0.0000000000000009
220
-1.0
230
0.0
  0
SEQEND
  8
BOOM1
 62
     2
  0
INSERT
  8
BOOM1
 62
     2
 66
     1
  2
CUBE
 10
52.441541
 20
55.050295
 30
18.970942
 41
-0.05
 42
1.355775
 50
242.782406
 43
0.05
210
0.0000000000000009
220
-1.0
230
0.0
  0
ATTRIB
  8
0
 62
     0
 10
52.441541
 20
55.050295
 30
18.970942
 40
0.135577
  1
intersection
  2
TYPE
 70
     1
 50
242.782406
 41
0.036879
 71
     2
210
0.0000000000000009
220
-1.0
230
0.0
  0
ATTRIB
  8
0
 62
     0
 10
52.240598
 20
55.153644
 30
18.970942
 40
0.135577
  1
Cube
  2
NAME
 70
     1
 50
242.782406
 41
0.036879
 71
     2
210
0.0000000000000009
220
-1.0
230
0.0
  0
SEQEND
  8
BOOM1
 62
     2
  0
INSERT
  8
BOOM1
 62
     2
 66
     1
  2
CUBE
 10
56.467721
 20
58.428662
 30
18.970942
 41
0.05
 42
1.355775
 50
197.217594
 43
0.05
210
0.0000000000000009
220
-1.0
230
0.0
  0
ATTRIB
  8
0
 62
     0
 10
56.467721
 20
58.428662
 30
18.970942
 40
0.135577
  1
intersection
  2
TYPE
 70
     1
 50
197.217594
 41
0.036879
210
0.0000000000000009
220
-1.0
230
0.0
  0
ATTRIB
  8
0
 62
     0
 10
56.400835
 20
58.644498
 30
18.970942
 40
0.135577
  1
Cube
  2
NAME
 70
     1
 50
197.217594
 41
0.036879
210
0.0000000000000009
220
-1.0
230
0.0
  0
SEQEND
  8
BOOM1
 62
     2
  0
INSERT
  8
BOOM1
 62
     2
 66
     1
  2
CUBE
 10
56.837958
 20
58.750594
 30
18.970942
 41
0.1
 42
1.244986
 50
220.0
 43
0.1
210
0.0000000000000009
220
-1.0
230
0.0
  0
ATTRIB
  8
0
 62
     0
 10
56.837958
 20
58.750594
 30
18.970942
 40
0.124499
  1
intersection
  2
TYPE
 70
     1
 50
220.0
 41
0.080322
210
0.0000000000000009
220
-1.0
230
0.0
  0
ATTRIB
  8
0
 62
     0
 10
56.704581
 20
58.909547
 30
18.970942
 40
0.124499
  1
Cube
  2
NAME
 70
     1
 50
220.0
 41
0.080322
210
0.0000000000000009
220
-1.0
230
0.0
  0
SEQEND
  8
BOOM1
 62
     2
  0
INSERT
  8
BOOM1
 62
     2
 66
     1
  2
CUBE
 10
54.859027
 20
57.078808
 30
18.970942
 41
0.05
 42
1.355775
 50
197.217594
 43
0.05
210
0.0000000000000009
220
-1.0
230
0.0
  0
ATTRIB
  8
0
 62
     0
 10
54.859027
 20
57.078808
 30
18.970942
 40
0.135577
  1
intersection
  2
TYPE
 70
     1
 50
197.217594
 41
0.036879
210
0.0000000000000009
220
-1.0
230
0.0
  0
ATTRIB
  8
0
 62
     0
 10
54.792142
 20
57.294644
 30
18.970942
 40
0.135577
  1
Cube
  2
NAME
 70
     1
 50
197.217594
 41
0.036879
210
0.0000000000000009
220
-1.0
230
0.0
  0
SEQEND
  8
BOOM1
 62
     2
  0
INSERT
  8
BOOM1
 62
     2
 66
     1
  2
CUBE
 10
55.658927
 20
57.750003
 30
18.970942
 41
-0.05
 42
1.355775
 50
242.782406
 43
0.05
210
0.0000000000000009
220
-1.0
230
0.0
  0
ATTRIB
  8
0
 62
     0
 10
55.658927
 20
57.750003
 30
18.970942
 40
0.135577
  1
intersection
  2
TYPE
 70
     1
 50
242.782406
 41
0.036879
 71
     2
210
0.0000000000000009
220
-1.0
230
0.0
  0
ATTRIB
  8
0
 62
     0
 10
55.457984
 20
57.853352
 30
18.970942
 40
0.135577
  1
Cube
  2
NAME
 70
     1
 50
242.782406
 41
0.036879
 71
     2
210
0.0000000000000009
220
-1.0
230
0.0
  0
SEQEND
  8
BOOM1
 62
     2
  0
INSERT
  8
BOOM1
 62
     2
 66
     1
  2
CUBE
 10
53.250334
 20
55.728954
 30
18.970942
 41
0.05
 42
1.355775
 50
197.217594
 43
0.05
210
0.0000000000000009
220
-1.0
230
0.0
  0
ATTRIB
  8
0
 62
     0
 10
53.250334
 20
55.728954
 30
18.970942
 40
0.135577
  1
intersection
  2
TYPE
 70
     1
 50
197.217594
 41
0.036879
210
0.0000000000000009
220
-1.0
230
0.0
  0
ATTRIB
  8
0
 62
     0
 10
53.183449
 20
55.94479
 30
18.970942
 40
0.135577
  1
Cube
  2
NAME
 70
     1
 50
197.217594
 41
0.036879
210
0.0000000000000009
220
-1.0
230
0.0
  0
SEQEND
  8
BOOM1
 62
     2
  0
INSERT
  8
BOOM1
 62
     2
 66
     1
  2
CUBE
 10
54.050234
 20
56.400149
 30
18.970942
 41
-0.05
 42
1.355775
 50
242.782406
 43
0.05
210
0.0000000000000009
220
-1.0
230
0.0
  0
ATTRIB
  8
0
 62
     0
 10
54.050234
 20
56.400149
 30
18.970942
 40
0.135577
  1
intersection
  2
TYPE
 70
     1
 50
242.782406
 41
0.036879
 71
     2
210
0.0000000000000009
220
-1.0
230
0.0
  0
ATTRIB
  8
0
 62
     0
 10
53.849291
 20
56.503498
 30
18.970942
 40
0.135577
  1
Cube
  2
NAME
 70
     1
 50
242.782406
 41
0.036879
 71
     2
210
0.0000000000000009
220
-1.0
230
0.0
  0
SEQEND
  8
BOOM1
 62
     2
  0
INSERT
  8
BOOM1
 62
     2
 66
     1
  2
CUBE
 10
48.424254
 20
51.679392
 30
18.970942
 41
0.05
 42
1.355775
 50
197.217594
 43
0.05
210
0.0000000000000009
220
-1.0
230
0.0
  0
ATTRIB
  8
0
 62
     0
 10
48.424254
 20
51.679392
 30
18.970942
 40
0.135577
  1
intersection
  2
TYPE
 70
     1
 50
197.217594
 41
0.036879
210
0.0000000000000009
220
-1.0
230
0.0
  0
ATTRIB
  8
0
 62
     0
 10
48.357369
 20
51.895228
 30
18.970942
 40
0.135577
  1
Cube
  2
NAME
 70
     1
 50
197.217594
 41
0.036879
210
0.0000000000000009
220
-1.0
230
0.0
  0
SEQEND
  8
BOOM1
 62
     2
  0
INSERT
  8
BOOM1
 62
     2
 66
     1
  2
CUBE
 10
50.832847
 20
53.700441
 30
18.970942
 41
-0.05
 42
1.355775
 50
242.782406
 43
0.05
210
0.0000000000000009
220
-1.0
230
0.0
  0
ATTRIB
  8
0
 62
     0
 10
50.832847
 20
53.700441
 30
18.970942
 40
0.135577
  1
intersection
  2
TYPE
 70
     1
 50
242.782406
 41
0.036879
 71
     2
210
0.0000000000000009
220
-1.0
230
0.0
  0
ATTRIB
  8
0
 62
     0
 10
50.631904
 20
53.80379
 30
18.970942
 40
0.135577
  1
Cube
  2
NAME
 70
     1
 50
242.782406
 41
0.036879
 71
     2
210
0.0000000000000009
220
-1.0
230
0.0
  0
SEQEND
  8
BOOM1
 62
     2
  0
INSERT
  8
BOOM1
 62
     2
 66
     1
  2
CUBE
 10
51.641641
 20
54.3791
 30
18.970942
 41
0.05
 42
1.355775
 50
197.217594
 43
0.05
210
0.0000000000000009
220
-1.0
230
0.0
  0
ATTRIB
  8
0
 62
     0
 10
51.641641
 20
54.3791
 30
18.970942
 40
0.135577
  1
intersection
  2
TYPE
 70
     1
 50
197.217594
 41
0.036879
210
0.0000000000000009
220
-1.0
230
0.0
  0
ATTRIB
  8
0
 62
     0
 10
51.574755
 20
54.594936
 30
18.970942
 40
0.135577
  1
Cube
  2
NAME
 70
     1
 50
197.217594
 41
0.036879
210
0.0000000000000009
220
-1.0
230
0.0
  0
SEQEND
  8
BOOM1
 62
     2
  0
INSERT
  8
BOOM1
 62
     2
 66
     1
  2
CUBE
 10
49.224154
 20
52.350587
 30
18.970942
 41
-0.05
 42
1.355775
 50
242.782406
 43
0.05
210
0.0000000000000009
220
-1.0
230
0.0
  0
ATTRIB
  8
0
 62
     0
 10
49.224154
 20
52.350587
 30
18.970942
 40
0.135577
  1
intersection
  2
TYPE
 70
     1
 50
242.782406
 41
0.036879
 71
     2
210
0.0000000000000009
220
-1.0
230
0.0
  0
ATTRIB
  8
0
 62
     0
 10
49.023211
 20
52.453936
 30
18.970942
 40
0.135577
  1
Cube
  2
NAME
 70
     1
 50
242.782406
 41
0.036879
 71
     2
210
0.0000000000000009
220
-1.0
230
0.0
  0
SEQEND
  8
BOOM1
 62
     2
  0
INSERT
  8
BOOM1
 62
     2
 66
     1
  2
CUBE
 10
50.032947
 20
53.029246
 30
18.970942
 41
0.05
 42
1.355775
 50
197.217594
 43
0.05
210
0.0000000000000009
220
-1.0
230
0.0
  0
ATTRIB
  8
0
 62
     0
 10
50.032947
 20
53.029246
 30
18.970942
 40
0.135577
  1
intersection
  2
TYPE
 70
     1
 50
197.217594
 41
0.036879
210
0.0000000000000009
220
-1.0
230
0.0
  0
ATTRIB
  8
0
 62
     0
 10
49.966062
 20
53.245082
 30
18.970942
 40
0.135577
  1
Cube
  2
NAME
 70
     1
 50
197.217594
 41
0.036879
210
0.0000000000000009
220
-1.0
230
0.0
  0
SEQEND
  8
BOOM1
 62
     2
  0
INSERT
  8
BOOM1
 62
     2
 66
     1
  2
CUBE
 10
46.006767
 20
49.65088
 30
18.970942
 41
-0.05
 42
1.355775
 50
242.782406
 43
0.05
210
0.0000000000000009
220
-1.0
230
0.0
  0
ATTRIB
  8
0
 62
     0
 10
46.006767
 20
49.65088
 30
18.970942
 40
0.135577
  1
intersection
  2
TYPE
 70
     1
 50
242.782406
 41
0.036879
 71
     2
210
0.0000000000000009
220
-1.0
230
0.0
  0
ATTRIB
  8
0
 62
     0
 10
45.805824
 20
49.754228
 30
18.970942
 40
0.135577
  1
Cube
  2
NAME
 70
     1
 50
242.782406
 41
0.036879
 71
     2
210
0.0000000000000009
220
-1.0
230
0.0
  0
SEQEND
  8
BOOM1
 62
     2
  0
INSERT
  8
BOOM1
 62
     2
 66
     1
  2
CUBE
 10
46.815561
 20
50.329538
 30
18.970942
 41
0.05
 42
1.355775
 50
197.217594
 43
0.05
210
0.0000000000000009
220
-1.0
230
0.0
  0
ATTRIB
  8
0
 62
     0
 10
46.815561
 20
50.329538
 30
18.970942
 40
0.135577
  1
intersection
  2
TYPE
 70
     1
 50
197.217594
 41
0.036879
210
0.0000000000000009
220
-1.0
230
0.0
  0
ATTRIB
  8
0
 62
     0
 10
46.748675
 20
50.545374
 30
18.970942
 40
0.135577
  1
Cube
  2
NAME
 70
     1
 50
197.217594
 41
0.036879
210
0.0000000000000009
220
-1.0
230
0.0
  0
SEQEND
  8
BOOM1
 62
     2
  0
INSERT
  8
BOOM1
 62
     2
 66
     1
  2
CUBE
 10
47.615461
 20
51.000733
 30
18.970942
 41
-0.05
 42
1.355775
 50
242.782406
 43
0.05
210
0.0000000000000009
220
-1.0
230
0.0
  0
ATTRIB
  8
0
 62
     0
 10
47.615461
 20
51.000733
 30
18.970942
 40
0.135577
  1
intersection
  2
TYPE
 70
     1
 50
242.782406
 41
0.036879
 71
     2
210
0.0000000000000009
220
-1.0
230
0.0
  0
ATTRIB
  8
0
 62
     0
 10
47.414518
 20
51.104082
 30
18.970942
 40
0.135577
  1
Cube
  2
NAME
 70
     1
 50
242.782406
 41
0.036879
 71
     2
210
0.0000000000000009
220
-1.0
230
0.0
  0
SEQEND
  8
BOOM1
 62
     2
  0
INSERT
  8
BOOM1
 62
     2
 66
     1
  2
CUBE
 10
45.206867
 20
48.979684
 30
18.970942
 41
0.05
 42
1.355775
 50
197.217594
 43
0.05
210
0.0000000000000009
220
-1.0
230
0.0
  0
ATTRIB
  8
0
 62
     0
 10
45.206867
 20
48.979684
 30
18.970942
 40
0.135577
  1
intersection
  2
TYPE
 70
     1
 50
197.217594
 41
0.036879
210
0.0000000000000009
220
-1.0
230
0.0
  0
ATTRIB
  8
0
 62
     0
 10
45.139982
 20
49.19552
 30
18.970942
 40
0.135577
  1
Cube
  2
NAME
 70
     1
 50
197.217594
 41
0.036879
210
0.0000000000000009
220
-1.0
230
0.0
  0
SEQEND
  8
BOOM1
 62
     2
  0
INSERT
  8
BOOM1
 62
     2
 66
     1
  2
CUBE
 10
41.989481
 20
46.279976
 30
18.970942
 41
0.05
 42
1.355775
 50
197.217594
 43
0.05
210
0.0000000000000009
220
-1.0
230
0.0
  0
ATTRIB
  8
0
 62
     0
 10
41.989481
 20
46.279976
 30
18.970942
 40
0.135577
  1
intersection
  2
TYPE
 70
     1
 50
197.217594
 41
0.036879
210
0.0000000000000009
220
-1.0
230
0.0
  0
ATTRIB
  8
0
 62
     0
 10
41.922595
 20
46.495812
 30
18.970942
 40
0.135577
  1
Cube
  2
NAME
 70
     1
 50
197.217594
 41
0.036879
210
0.0000000000000009
220
-1.0
230
0.0
  0
SEQEND
  8
BOOM1
 62
     2
  0
INSERT
  8
BOOM1
 62
     2
 66
     1
  2
CUBE
 10
43.598174
 20
47.62983
 30
18.970942
 41
0.05
 42
1.355775
 50
197.217594
 43
0.05
210
0.0000000000000009
220
-1.0
230
0.0
  0
ATTRIB
  8
0
 62
     0
 10
43.598174
 20
47.62983
 30
18.970942
 40
0.135577
  1
intersection
  2
TYPE
 70
     1
 50
197.217594
 41
0.036879
210
0.0000000000000009
220
-1.0
230
0.0
  0
ATTRIB
  8
0
 62
     0
 10
43.531289
 20
47.845666
 30
18.970942
 40
0.135577
  1
Cube
  2
NAME
 70
     1
 50
197.217594
 41
0.036879
210
0.0000000000000009
220
-1.0
230
0.0
  0
SEQEND
  8
BOOM1
 62
     2
  0
INSERT
  8
BOOM1
 62
     2
 66
     1
  2
CUBE
 10
42.789381
 20
46.951172
 30
18.970942
 41
-0.05
 42
1.355775
 50
242.782406
 43
0.05
210
0.0000000000000009
220
-1.0
230
0.0
  0
ATTRIB
  8
0
 62
     0
 10
42.789381
 20
46.951172
 30
18.970942
 40
0.135577
  1
intersection
  2
TYPE
 70
     1
 50
242.782406
 41
0.036879
 71
     2
210
0.0000000000000009
220
-1.0
230
0.0
  0
ATTRIB
  8
0
 62
     0
 10
42.588438
 20
47.05452
 30
18.970942
 40
0.135577
  1
Cube
  2
NAME
 70
     1
 50
242.782406
 41
0.036879
 71
     2
210
0.0000000000000009
220
-1.0
230
0.0
  0
SEQEND
  8
BOOM1
 62
     2
  0
INSERT
  8
BOOM1
 62
     2
 66
     1
  2
CUBE
 10
41.180687
 20
45.601318
 30
18.970942
 41
-0.05
 42
1.355775
 50
242.782406
 43
0.05
210
0.0000000000000009
220
-1.0
230
0.0
  0
ATTRIB
  8
0
 62
     0
 10
41.180687
 20
45.601318
 30
18.970942
 40
0.135577
  1
intersection
  2
TYPE
 70
     1
 50
242.782406
 41
0.036879
 71
     2
210
0.0000000000000009
220
-1.0
230
0.0
  0
ATTRIB
  8
0
 62
     0
 10
40.979744
 20
45.704666
 30
18.970942
 40
0.135577
  1
Cube
  2
NAME
 70
     1
 50
242.782406
 41
0.036879
 71
     2
210
0.0000000000000009
220
-1.0
230
0.0
  0
SEQEND
  8
BOOM1
 62
     2
  0
INSERT
  8
BOOM1
 62
     2
 66
     1
  2
CUBE
 10
40.777792
 20
45.278333
 30
18.970942
 41
0.1
 42
1.252791
 50
220.0
 43
0.1
210
0.0000000000000009
220
-1.0
230
0.0
  0
ATTRIB
  8
0
 62
     0
 10
24.602338
 20
31.705516
 30
40.086497
 40
0.125279
  1
intersection
  2
TYPE
 70
     1
 50
220.0
 41
0.079822
210
0.0000000000000009
220
-1.0
230
0.0
  0
ATTRIB
  8
0
 62
     0
 10
24.468125
 20
31.865465
 30
40.086497
 40
0.125279
  1
Cube
  2
NAME
 70
     1
 50
220.0
 41
0.079822
210
0.0000000000000009
220
-1.0
230
0.0
  0
SEQEND
  8
BOOM1
 62
     2
  0
INSERT
  8
BOOM1
 62
     2
 66
     1
  2
CUBE
 10
17.732498
 20
65.058199
 30
9.723756
 41
-0.05
 42
1.355775
 50
292.782406
 43
0.05
210
-0.6427876096865396
220
-0.0000000000000006
230
0.7660444431189779
  0
ATTRIB
  8
0
 62
     0
 10
17.732498
 20
65.058199
 30
9.723756
 40
0.135577
  1
intersection
  2
TYPE
 70
     1
 50
292.782406
 41
0.036879
 71
     2
210
-0.6427876096865396
220
-0.0000000000000006
230
0.7660444431189779
  0
ATTRIB
  8
0
 62
     0
 10
17.524165
 20
64.970699
 30
9.723756
 40
0.135577
  1
Cube
  2
NAME
 70
     1
 50
292.782406
 41
0.036879
 71
     2
210
-0.6427876096865396
220
-0.0000000000000006
230
0.7660444431189779
  0
SEQEND
  8
BOOM1
 62
     2
  0
INSERT
  8
BOOM1
 62
     2
 66
     1
  2
CUBE
 10
16.470068
 20
70.84056
 30
9.723756
 41
0.1
 42
10.5
 50
180.0
 43
0.1
210
-0.6427876096865396
220
-0.0000000000000006
230
0.7660444431189779
  0
ATTRIB
  8
0
 62
     0
 10
-20.383426
 20
44.442935
 30
-9.533894
 40
1.05
  1
intersection
  2
TYPE
 70
     1
 50
180.0
 41
0.009524
210
-0.6427876096865396
220
-0.0000000000000006
230
0.766044443118978
  0
ATTRIB
  8
0
 62
     0
 10
-20.383426
 20
46.192935
 30
-9.533894
 40
1.05
  1
Cube
  2
NAME
 70
     1
 50
180.0
 41
0.009524
210
-0.6427876096865396
220
-0.0000000000000006
230
0.766044443118978
  0
SEQEND
  8
BOOM1
 62
     2
  0
INSERT
  8
BOOM1
 62
     2
 66
     1
  2
CUBE
 10
17.732498
 20
75.558199
 30
9.723756
 41
-0.05
 42
1.355775
 50
292.782406
 43
0.05
210
-0.6427876096865396
220
-0.0000000000000006
230
0.7660444431189779
  0
ATTRIB
  8
0
 62
     0
 10
17.732498
 20
75.558199
 30
9.723756
 40
0.135577
  1
intersection
  2
TYPE
 70
     1
 50
292.782406
 41
0.036879
 71
     2
210
-0.6427876096865396
220
-0.0000000000000006
230
0.7660444431189779
  0
ATTRIB
  8
0
 62
     0
 10
17.524165
 20
75.470699
 30
9.723756
 40
0.135577
  1
Cube
  2
NAME
 70
     1
 50
292.782406
 41
0.036879
 71
     2
210
-0.6427876096865396
220
-0.0000000000000006
230
0.7660444431189779
  0
SEQEND
  8
BOOM1
 62
     2
  0
INSERT
  8
BOOM1
 62
     2
 66
     1
  2
CUBE
 10
17.732498
 20
80.814003
 30
9.723756
 41
0.05
 42
1.355775
 50
247.217594
 43
0.05
210
-0.6427876096865396
220
-0.0000000000000006
230
0.7660444431189779
  0
ATTRIB
  8
0
 62
     0
 10
17.732498
 20
80.814003
 30
9.723756
 40
0.135577
  1
intersection
  2
TYPE
 70
     1
 50
247.217594
 41
0.036879
210
-0.6427876096865396
220
-0.0000000000000006
230
0.7660444431189779
  0
ATTRIB
  8
0
 62
     0
 10
17.524165
 20
80.901503
 30
9.723756
 40
0.135577
  1
Cube
  2
NAME
 70
     1
 50
247.217594
 41
0.036879
210
-0.6427876096865396
220
-0.0000000000000006
230
0.7660444431189779
  0
SEQEND
  8
BOOM1
 62
     2
  0
INSERT
  8
BOOM1
 62
     2
 66
     1
  2
CUBE
 10
17.723867
 20
81.304556
 30
9.723756
 41
0.1
 42
1.244986
 50
270.0
 43
0.1
210
-0.6427876096865396
220
-0.0000000000000006
230
0.7660444431189779
  0
ATTRIB
  8
0
 62
     0
 10
17.723867
 20
81.304556
 30
9.723756
 40
0.124499
  1
intersection
  2
TYPE
 70
     1
 50
270.0
 41
0.080322
210
-0.6427876096865396
220
-0.0000000000000006
230
0.766044443118978
  0
ATTRIB
  8
0
 62
     0
 10
17.51637
 20
81.304556
 30
9.723756
 40
0.124499
  1
Cube
  2
NAME
 70
     1
 50
270.0
 41
0.080322
210
-0.6427876096865396
220
-0.0000000000000006
230
0.766044443118978
  0
SEQEND
  8
BOOM1
 62
     2
  0
INSERT
  8
BOOM1
 62
     2
 66
     1
  2
CUBE
 10
17.732498
 20
78.714003
 30
9.723756
 41
0.05
 42
1.355775
 50
247.217594
 43
0.05
210
-0.6427876096865396
220
-0.0000000000000006
230
0.7660444431189779
  0
ATTRIB
  8
0
 62
     0
 10
17.732498
 20
78.714003
 30
9.723756
 40
0.135577
  1
intersection
  2
TYPE
 70
     1
 50
247.217594
 41
0.036879
210
-0.6427876096865396
220
-0.0000000000000006
230
0.7660444431189779
  0
ATTRIB
  8
0
 62
     0
 10
17.524165
 20
78.801503
 30
9.723756
 40
0.135577
  1
Cube
  2
NAME
 70
     1
 50
247.217594
 41
0.036879
210
-0.6427876096865396
220
-0.0000000000000006
230
0.7660444431189779
  0
SEQEND
  8
BOOM1
 62
     2
  0
INSERT
  8
BOOM1
 62
     2
 66
     1
  2
CUBE
 10
17.732498
 20
79.758199
 30
9.723756
 41
-0.05
 42
1.355775
 50
292.782406
 43
0.05
210
-0.6427876096865396
220
-0.0000000000000006
230
0.7660444431189779
  0
ATTRIB
  8
0
 62
     0
 10
17.732498
 20
79.758199
 30
9.723756
 40
0.135577
  1
intersection
  2
TYPE
 70
     1
 50
292.782406
 41
0.036879
 71
     2
210
-0.6427876096865396
220
-0.0000000000000006
230
0.7660444431189779
  0
ATTRIB
  8
0
 62
     0
 10
17.524165
 20
79.670699
 30
9.723756
 40
0.135577
  1
Cube
  2
NAME
 70
     1
 50
292.782406
 41
0.036879
 71
     2
210
-0.6427876096865396
220
-0.0000000000000006
230
0.7660444431189779
  0
SEQEND
  8
BOOM1
 62
     2
  0
INSERT
  8
BOOM1
 62
     2
 66
     1
  2
CUBE
 10
17.732498
 20
76.614003
 30
9.723756
 41
0.05
 42
1.355775
 50
247.217594
 43
0.05
210
-0.6427876096865396
220
-0.0000000000000006
230
0.7660444431189779
  0
ATTRIB
  8
0
 62
     0
 10
17.732498
 20
76.614003
 30
9.723756
 40
0.135577
  1
intersection
  2
TYPE
 70
     1
 50
247.217594
 41
0.036879
210
-0.6427876096865396
220
-0.0000000000000006
230
0.7660444431189779
  0
ATTRIB
  8
0
 62
     0
 10
17.524165
 20
76.701503
 30
9.723756
 40
0.135577
  1
Cube
  2
NAME
 70
     1
 50
247.217594
 41
0.036879
210
-0.6427876096865396
220
-0.0000000000000006
230
0.7660444431189779
  0
SEQEND
  8
BOOM1
 62
     2
  0
INSERT
  8
BOOM1
 62
     2
 66
     1
  2
CUBE
 10
17.732498
 20
77.658199
 30
9.723756
 41
-0.05
 42
1.355775
 50
292.782406
 43
0.05
210
-0.6427876096865396
220
-0.0000000000000006
230
0.7660444431189779
  0
ATTRIB
  8
0
 62
     0
 10
17.732498
 20
77.658199
 30
9.723756
 40
0.135577
  1
intersection
  2
TYPE
 70
     1
 50
292.782406
 41
0.036879
 71
     2
210
-0.6427876096865396
220
-0.0000000000000006
230
0.7660444431189779
  0
ATTRIB
  8
0
 62
     0
 10
17.524165
 20
77.570699
 30
9.723756
 40
0.135577
  1
Cube
  2
NAME
 70
     1
 50
292.782406
 41
0.036879
 71
     2
210
-0.6427876096865396
220
-0.0000000000000006
230
0.7660444431189779
  0
SEQEND
  8
BOOM1
 62
     2
  0
INSERT
  8
BOOM1
 62
     2
 66
     1
  2
CUBE
 10
17.732498
 20
70.314003
 30
9.723756
 41
0.05
 42
1.355775
 50
247.217594
 43
0.05
210
-0.6427876096865396
220
-0.0000000000000006
230
0.7660444431189779
  0
ATTRIB
  8
0
 62
     0
 10
17.732498
 20
70.314003
 30
9.723756
 40
0.135577
  1
intersection
  2
TYPE
 70
     1
 50
247.217594
 41
0.036879
210
-0.6427876096865396
220
-0.0000000000000006
230
0.7660444431189779
  0
ATTRIB
  8
0
 62
     0
 10
17.524165
 20
70.401503
 30
9.723756
 40
0.135577
  1
Cube
  2
NAME
 70
     1
 50
247.217594
 41
0.036879
210
-0.6427876096865396
220
-0.0000000000000006
230
0.7660444431189779
  0
SEQEND
  8
BOOM1
 62
     2
  0
INSERT
  8
BOOM1
 62
     2
 66
     1
  2
CUBE
 10
17.732498
 20
73.458199
 30
9.723756
 41
-0.05
 42
1.355775
 50
292.782406
 43
0.05
210
-0.6427876096865396
220
-0.0000000000000006
230
0.7660444431189779
  0
ATTRIB
  8
0
 62
     0
 10
17.732498
 20
73.458199
 30
9.723756
 40
0.135577
  1
intersection
  2
TYPE
 70
     1
 50
292.782406
 41
0.036879
 71
     2
210
-0.6427876096865396
220
-0.0000000000000006
230
0.7660444431189779
  0
ATTRIB
  8
0
 62
     0
 10
17.524165
 20
73.370699
 30
9.723756
 40
0.135577
  1
Cube
  2
NAME
 70
     1
 50
292.782406
 41
0.036879
 71
     2
210
-0.6427876096865396
220
-0.0000000000000006
230
0.7660444431189779
  0
SEQEND
  8
BOOM1
 62
     2
  0
INSERT
  8
BOOM1
 62
     2
 66
     1
  2
CUBE
 10
17.732498
 20
74.514003
 30
9.723756
 41
0.05
 42
1.355775
 50
247.217594
 43
0.05
210
-0.6427876096865396
220
-0.0000000000000006
230
0.7660444431189779
  0
ATTRIB
  8
0
 62
     0
 10
17.732498
 20
74.514003
 30
9.723756
 40
0.135577
  1
intersection
  2
TYPE
 70
     1
 50
247.217594
 41
0.036879
210
-0.6427876096865396
220
-0.0000000000000006
230
0.7660444431189779
  0
ATTRIB
  8
0
 62
     0
 10
17.524165
 20
74.601503
 30
9.723756
 40
0.135577
  1
Cube
  2
NAME
 70
     1
 50
247.217594
 41
0.036879
210
-0.6427876096865396
220
-0.0000000000000006
230
0.7660444431189779
  0
SEQEND
  8
BOOM1
 62
     2
  0
INSERT
  8
BOOM1
 62
     2
 66
     1
  2
CUBE
 10
17.732498
 20
71.358199
 30
9.723756
 41
-0.05
 42
1.355775
 50
292.782406
 43
0.05
210
-0.6427876096865396
220
-0.0000000000000006
230
0.7660444431189779
  0
ATTRIB
  8
0
 62
     0
 10
17.732498
 20
71.358199
 30
9.723756
 40
0.135577
  1
intersection
  2
TYPE
 70
     1
 50
292.782406
 41
0.036879
 71
     2
210
-0.6427876096865396
220
-0.0000000000000006
230
0.7660444431189779
  0
ATTRIB
  8
0
 62
     0
 10
17.524165
 20
71.270699
 30
9.723756
 40
0.135577
  1
Cube
  2
NAME
 70
     1
 50
292.782406
 41
0.036879
 71
     2
210
-0.6427876096865396
220
-0.0000000000000006
230
0.7660444431189779
  0
SEQEND
  8
BOOM1
 62
     2
  0
INSERT
  8
BOOM1
 62
     2
 66
     1
  2
CUBE
 10
17.732498
 20
72.414003
 30
9.723756
 41
0.05
 42
1.355775
 50
247.217594
 43
0.05
210
-0.6427876096865396
220
-0.0000000000000006
230
0.7660444431189779
  0
ATTRIB
  8
0
 62
     0
 10
17.732498
 20
72.414003
 30
9.723756
 40
0.135577
  1
intersection
  2
TYPE
 70
     1
 50
247.217594
 41
0.036879
210
-0.6427876096865396
220
-0.0000000000000006
230
0.7660444431189779
  0
ATTRIB
  8
0
 62
     0
 10
17.524165
 20
72.501503
 30
9.723756
 40
0.135577
  1
Cube
  2
NAME
 70
     1
 50
247.217594
 41
0.036879
210
-0.6427876096865396
220
-0.0000000000000006
230
0.7660444431189779
  0
SEQEND
  8
BOOM1
 62
     2
  0
INSERT
  8
BOOM1
 62
     2
 66
     1
  2
CUBE
 10
17.732498
 20
67.158199
 30
9.723756
 41
-0.05
 42
1.355775
 50
292.782406
 43
0.05
210
-0.6427876096865396
220
-0.0000000000000006
230
0.7660444431189779
  0
ATTRIB
  8
0
 62
     0
 10
17.732498
 20
67.158199
 30
9.723756
 40
0.135577
  1
intersection
  2
TYPE
 70
     1
 50
292.782406
 41
0.036879
 71
     2
210
-0.6427876096865396
220
-0.0000000000000006
230
0.7660444431189779
  0
ATTRIB
  8
0
 62
     0
 10
17.524165
 20
67.070699
 30
9.723756
 40
0.135577
  1
Cube
  2
NAME
 70
     1
 50
292.782406
 41
0.036879
 71
     2
210
-0.6427876096865396
220
-0.0000000000000006
230
0.7660444431189779
  0
SEQEND
  8
BOOM1
 62
     2
  0
INSERT
  8
BOOM1
 62
     2
 66
     1
  2
CUBE
 10
17.732498
 20
68.214003
 30
9.723756
 41
0.05
 42
1.355775
 50
247.217594
 43
0.05
210
-0.6427876096865396
220
-0.0000000000000006
230
0.7660444431189779
  0
ATTRIB
  8
0
 62
     0
 10
17.732498
 20
68.214003
 30
9.723756
 40
0.135577
  1
intersection
  2
TYPE
 70
     1
 50
247.217594
 41
0.036879
210
-0.6427876096865396
220
-0.0000000000000006
230
0.7660444431189779
  0
ATTRIB
  8
0
 62
     0
 10
17.524165
 20
68.301503
 30
9.723756
 40
0.135577
  1
Cube
  2
NAME
 70
     1
 50
247.217594
 41
0.036879
210
-0.6427876096865396
220
-0.0000000000000006
230
0.7660444431189779
  0
SEQEND
  8
BOOM1
 62
     2
  0
INSERT
  8
BOOM1
 62
     2
 66
     1
  2
CUBE
 10
17.732498
 20
69.258199
 30
9.723756
 41
-0.05
 42
1.355775
 50
292.782406
 43
0.05
210
-0.6427876096865396
220
-0.0000000000000006
230
0.7660444431189779
  0
ATTRIB
  8
0
 62
     0
 10
17.732498
 20
69.258199
 30
9.723756
 40
0.135577
  1
intersection
  2
TYPE
 70
     1
 50
292.782406
 41
0.036879
 71
     2
210
-0.6427876096865396
220
-0.0000000000000006
230
0.7660444431189779
  0
ATTRIB
  8
0
 62
     0
 10
17.524165
 20
69.170699
 30
9.723756
 40
0.135577
  1
Cube
  2
NAME
 70
     1
 50
292.782406
 41
0.036879
 71
     2
210
-0.6427876096865396
220
-0.0000000000000006
230
0.7660444431189779
  0
SEQEND
  8
BOOM1
 62
     2
  0
INSERT
  8
BOOM1
 62
     2
 66
     1
  2
CUBE
 10
17.732498
 20
66.114003
 30
9.723756
 41
0.05
 42
1.355775
 50
247.217594
 43
0.05
210
-0.6427876096865396
220
-0.0000000000000006
230
0.7660444431189779
  0
ATTRIB
  8
0
 62
     0
 10
17.732498
 20
66.114003
 30
9.723756
 40
0.135577
  1
intersection
  2
TYPE
 70
     1
 50
247.217594
 41
0.036879
210
-0.6427876096865396
220
-0.0000000000000006
230
0.7660444431189779
  0
ATTRIB
  8
0
 62
     0
 10
17.524165
 20
66.201503
 30
9.723756
 40
0.135577
  1
Cube
  2
NAME
 70
     1
 50
247.217594
 41
0.036879
210
-0.6427876096865396
220
-0.0000000000000006
230
0.7660444431189779
  0
SEQEND
  8
BOOM1
 62
     2
  0
INSERT
  8
BOOM1
 62
     2
 66
     1
  2
CUBE
 10
17.732498
 20
61.914003
 30
9.723756
 41
0.05
 42
1.355775
 50
247.217594
 43
0.05
210
-0.6427876096865396
220
-0.0000000000000006
230
0.7660444431189779
  0
ATTRIB
  8
0
 62
     0
 10
17.732498
 20
61.914003
 30
9.723756
 40
0.135577
  1
intersection
  2
TYPE
 70
     1
 50
247.217594
 41
0.036879
210
-0.6427876096865396
220
-0.0000000000000006
230
0.7660444431189779
  0
ATTRIB
  8
0
 62
     0
 10
17.524165
 20
62.001503
 30
9.723756
 40
0.135577
  1
Cube
  2
NAME
 70
     1
 50
247.217594
 41
0.036879
210
-0.6427876096865396
220
-0.0000000000000006
230
0.7660444431189779
  0
SEQEND
  8
BOOM1
 62
     2
  0
INSERT
  8
BOOM1
 62
     2
 66
     1
  2
CUBE
 10
17.732498
 20
64.014003
 30
9.723756
 41
0.05
 42
1.355775
 50
247.217594
 43
0.05
210
-0.6427876096865396
220
-0.0000000000000006
230
0.7660444431189779
  0
ATTRIB
  8
0
 62
     0
 10
17.732498
 20
64.014003
 30
9.723756
 40
0.135577
  1
intersection
  2
TYPE
 70
     1
 50
247.217594
 41
0.036879
210
-0.6427876096865396
220
-0.0000000000000006
230
0.7660444431189779
  0
ATTRIB
  8
0
 62
     0
 10
17.524165
 20
64.101503
 30
9.723756
 40
0.135577
  1
Cube
  2
NAME
 70
     1
 50
247.217594
 41
0.036879
210
-0.6427876096865396
220
-0.0000000000000006
230
0.7660444431189779
  0
SEQEND
  8
BOOM1
 62
     2
  0
INSERT
  8
BOOM1
 62
     2
 66
     1
  2
CUBE
 10
17.732498
 20
62.958199
 30
9.723756
 41
-0.05
 42
1.355775
 50
292.782406
 43
0.05
210
-0.6427876096865396
220
-0.0000000000000006
230
0.7660444431189779
  0
ATTRIB
  8
0
 62
     0
 10
17.732498
 20
62.958199
 30
9.723756
 40
0.135577
  1
intersection
  2
TYPE
 70
     1
 50
292.782406
 41
0.036879
 71
     2
210
-0.6427876096865396
220
-0.0000000000000006
230
0.7660444431189779
  0
ATTRIB
  8
0
 62
     0
 10
17.524165
 20
62.870699
 30
9.723756
 40
0.135577
  1
Cube
  2
NAME
 70
     1
 50
292.782406
 41
0.036879
 71
     2
210
-0.6427876096865396
220
-0.0000000000000006
230
0.7660444431189779
  0
SEQEND
  8
BOOM1
 62
     2
  0
INSERT
  8
BOOM1
 62
     2
 66
     1
  2
CUBE
 10
17.732498
 20
60.858199
 30
9.723756
 41
-0.05
 42
1.355775
 50
292.782406
 43
0.05
210
-0.6427876096865396
220
-0.0000000000000006
230
0.7660444431189779
  0
ATTRIB
  8
0
 62
     0
 10
17.732498
 20
60.858199
 30
9.723756
 40
0.135577
  1
intersection
  2
TYPE
 70
     1
 50
292.782406
 41
0.036879
 71
     2
210
-0.6427876096865396
220
-0.0000000000000006
230
0.7660444431189779
  0
ATTRIB
  8
0
 62
     0
 10
17.524165
 20
60.770699
 30
9.723756
 40
0.135577
  1
Cube
  2
NAME
 70
     1
 50
292.782406
 41
0.036879
 71
     2
210
-0.6427876096865396
220
-0.0000000000000006
230
0.7660444431189779
  0
SEQEND
  8
BOOM1
 62
     2
  0
INSERT
  8
BOOM1
 62
     2
 66
     1
  2
CUBE
 10
17.720942
 20
60.341952
 30
9.723756
 41
0.1
 42
1.252791
 50
270.0
 43
0.1
210
-0.6427876096865396
220
-0.0000000000000006
230
0.7660444431189779
  0
ATTRIB
  8
0
 62
     0
 10
17.720942
 20
39.226397
 30
30.839311
 40
0.125279
  1
intersection
  2
TYPE
 70
     1
 50
270.0
 41
0.079822
210
-0.6427876096865396
220
-0.0000000000000006
230
0.766044443118978
  0
ATTRIB
  8
0
 62
     0
 10
17.512144
 20
39.226397
 30
30.839311
 40
0.125279
  1
Cube
  2
NAME
 70
     1
 50
270.0
 41
0.079822
210
-0.6427876096865396
220
-0.0000000000000006
230
0.766044443118978
  0
SEQEND
  8
BOOM1
 62
     2
  0
INSERT
  8
BOOM1
 62
     2
 66
     1
  2
CUBE
 10
-63.023437
 20
62.644709
 30
-12.193218
 41
-0.1
 42
6.5
 50
47.038686
 43
0.1
210
0.0400916684552244
220
0.9986295347545741
230
0.0336409042140614
  0
ATTRIB
  8
0
 62
     0
 10
-63.023437
 20
62.644709
 30
-12.193218
 40
0.65
  1
intersection
  2
TYPE
 70
     1
 50
47.038686
 41
0.015385
 71
     2
210
0.0400916684552244
220
0.9986295347545741
230
0.0336409042140614
  0
ATTRIB
  8
0
 62
     0
 10
-62.230639
 20
61.906412
 30
-12.193218
 40
0.65
  1
Cube
  2
NAME
 70
     1
 50
47.038686
 41
0.015385
 71
     2
210
0.0400916684552244
220
0.9986295347545741
230
0.0336409042140614
  0
SEQEND
  8
BOOM1
 62
     2
  0
INSERT
  8
BOOM1
 62
     2
 66
     1
  2
CUBE
 10
-58.37944
 20
59.864544
 30
-12.193218
 41
0.05
 42
1.588092
 50
1.708043
 43
0.05
210
0.0400916684552244
220
0.9986295347545741
230
0.0336409042140614
  0
ATTRIB
  8
0
 62
     0
 10
-58.37944
 20
59.864544
 30
-12.193218
 40
0.158809
  1
intersection
  2
TYPE
 70
     1
 50
1.708043
 41
0.031484
 51
0.0
210
0.0400916684552244
220
0.9986295347545741
230
0.0336409042140614
  0
ATTRIB
  8
0
 62
     0
 10
-58.371551
 20
59.599979
 30
-12.193218
 40
0.158809
  1
Cube
  2
NAME
 70
     1
 50
1.708043
 41
0.031484
 51
0.0
210
0.0400916684552244
220
0.9986295347545741
230
0.0336409042140614
  0
SEQEND
  8
BOOM1
 62
     2
  0
INSERT
  8
BOOM1
 62
     2
 66
     1
  2
CUBE
 10
-59.928111
 20
61.327954
 30
-12.193218
 41
0.05
 42
1.531102
 50
95.646098
 43
0.05
210
0.0400916684552244
220
0.9986295347545741
230
0.0336409042140614
  0
ATTRIB
  8
0
 62
     0
 10
-59.928111
 20
61.327954
 30
-12.193218
 40
0.15311
  1
intersection
  2
TYPE
 70
     1
 50
95.646098
 41
0.032656
210
0.0400916684552244
220
0.9986295347545741
230
0.0336409042140614
  0
ATTRIB
  8
0
 62
     0
 10
-59.674165
 20
61.35306
 30
-12.193218
 40
0.15311
  1
Cube
  2
NAME
 70
     1
 50
95.646098
 41
0.032656
210
0.0400916684552244
220
0.9986295347545741
230
0.0336409042140614
  0
SEQEND
  8
BOOM1
 62
     2
  0
INSERT
  8
BOOM1
 62
     2
 66
     1
  2
CUBE
 10
-61.648284
 20
62.634343
 30
-12.193218
 41
0.05
 42
1.470215
 50
7.680769
 43
0.05
210
0.0400916684552244
220
0.9986295347545741
230
0.0336409042140614
  0
ATTRIB
  8
0
 62
     0
 10
-61.648284
 20
62.634343
 30
-12.193218
 40
0.147022
  1
intersection
  2
TYPE
 70
     1
 50
7.680769
 41
0.034009
 51
0.0
210
0.0400916684552244
220
0.9986295347545741
230
0.0336409042140614
  0
ATTRIB
  8
0
 62
     0
 10
-61.615534
 20
62.391506
 30
-12.193218
 40
0.147022
  1
Cube
  2
NAME
 70
     1
 50
7.680769
 41
0.034009
 51
0.0
210
0.0400916684552244
220
0.9986295347545741
230
0.0336409042140614
  0
SEQEND
  8
BOOM1
 62
     2
  0
INSERT
  8
BOOM1
 62
     2
 66
     1
  2
CUBE
 10
-63.234425
 20
64.100685
 30
-12.193218
 41
0.05
 42
1.389673
 50
89.615834
 43
0.05
210
0.0400916684552244
220
0.9986295347545741
230
0.0336409042140614
  0
ATTRIB
  8
0
 62
     0
 10
-63.234425
 20
64.100685
 30
-12.193218
 40
0.138967
  1
intersection
  2
TYPE
 70
     1
 50
89.615834
 41
0.03598
210
0.0400916684552244
220
0.9986295347545741
230
0.0336409042140614
  0
ATTRIB
  8
0
 62
     0
 10
-63.002818
 20
64.099132
 30
-12.193218
 40
0.138967
  1
Cube
  2
NAME
 70
     1
 50
89.615834
 41
0.03598
210
0.0400916684552244
220
0.9986295347545741
230
0.0336409042140614
  0
SEQEND
  8
BOOM1
 62
     2
  0
INSERT
  8
BOOM1
 62
     2
 66
     1
  2
CUBE
 10
-64.976937
 20
65.380415
 30
-12.193218
 41
0.05
 42
1.318509
 50
15.523203
 43
0.05
210
0.0400916684552244
220
0.9986295347545741
230
0.0336409042140614
  0
ATTRIB
  8
0
 62
     0
 10
-64.976937
 20
65.380415
 30
-12.193218
 40
0.131851
  1
intersection
  2
TYPE
 70
     1
 50
15.523203
 41
0.037922
210
0.0400916684552244
220
0.9986295347545741
230
0.0336409042140614
  0
ATTRIB
  8
0
 62
     0
 10
-64.918125
 20
65.16868
 30
-12.193218
 40
0.131851
  1
Cube
  2
NAME
 70
     1
 50
15.523203
 41
0.037922
210
0.0400916684552244
220
0.9986295347545741
230
0.0336409042140614
  0
SEQEND
  8
BOOM1
 62
     2
  0
INSERT
  8
BOOM1
 62
     2
 66
     1
  2
CUBE
 10
-66.534795
 20
66.809036
 30
-12.193218
 41
0.05
 42
1.243588
 50
81.935085
 43
0.05
210
0.0400916684552244
220
0.9986295347545741
230
0.0336409042140614
  0
ATTRIB
  8
0
 62
     0
 10
-66.534795
 20
66.809036
 30
-12.193218
 40
0.124359
  1
intersection
  2
TYPE
 70
     1
 50
81.935085
 41
0.040206
210
0.0400916684552244
220
0.9986295347545741
230
0.0336409042140614
  0
ATTRIB
  8
0
 62
     0
 10
-66.329581
 20
66.779957
 30
-12.193218
 40
0.124359
  1
Cube
  2
NAME
 70
     1
 50
81.935085
 41
0.040206
210
0.0400916684552244
220
0.9986295347545741
230
0.0336409042140614
  0
SEQEND
  8
BOOM1
 62
     2
  0
INSERT
  8
BOOM1
 62
     2
 66
     1
  2
CUBE
 10
-18.656967
 20
88.056967
 30
-2.958704
 41
-0.1
 42
6.5
 50
357.0
 43
0.1
210
0.6819983600624988
220
0.0000000000000006
230
-0.7313537016191701
  0
ATTRIB
  8
0
 62
     0
 10
-18.656967
 20
88.056967
 30
-2.958704
 40
0.65
  1
intersection
  2
TYPE
 70
     1
 50
357.0
 41
0.015385
 71
     2
210
0.6819983600624988
220
0.0000000000000007
230
-0.7313537016191701
  0
ATTRIB
  8
0
 62
     0
 10
-18.713664
 20
86.975118
 30
-2.958704
 40
0.65
  1
Cube
  2
NAME
 70
     1
 50
357.0
 41
0.015385
 71
     2
210
0.6819983600624988
220
0.0000000000000007
230
-0.7313537016191701
  0
SEQEND
  8
BOOM1
 62
     2
  0
INSERT
  8
BOOM1
 62
     2
 66
     1
  2
CUBE
 10
-17.781692
 20
86.996284
 30
-2.958704
 41
0.05
 42
1.470215
 50
317.642083
 43
0.05
210
0.6819983600624988
220
0.0000000000000006
230
-0.7313537016191701
  0
ATTRIB
  8
0
 62
     0
 10
-17.781692
 20
86.996284
 30
-2.958704
 40
0.147022
  1
intersection
  2
TYPE
 70
     1
 50
317.642083
 41
0.034009
 51
0.0
210
0.6819983600624988
220
0.0000000000000007
230
-0.7313537016191701
  0
ATTRIB
  8
0
 62
     0
 10
-17.946787
 20
86.815215
 30
-2.958704
 40
0.147022
  1
Cube
  2
NAME
 70
     1
 50
317.642083
 41
0.034009
 51
0.0
210
0.6819983600624988
220
0.0000000000000007
230
-0.7313537016191701
  0
SEQEND
  8
BOOM1
 62
     2
  0
INSERT
  8
BOOM1
 62
     2
 66
     1
  2
CUBE
 10
-17.814782
 20
91.311344
 30
-2.958704
 41
0.05
 42
1.318509
 50
325.484517
 43
0.05
210
0.6819983600624988
220
0.0000000000000006
230
-0.7313537016191701
  0
ATTRIB
  8
0
 62
     0
 10
-17.814782
 20
91.311344
 30
-2.958704
 40
0.131851
  1
intersection
  2
TYPE
 70
     1
 50
325.484517
 41
0.037922
210
0.6819983600624988
220
0.0000000000000006
230
-0.7313537016191701
  0
ATTRIB
  8
0
 62
     0
 10
-17.939299
 20
91.130275
 30
-2.958704
 40
0.131851
  1
Cube
  2
NAME
 70
     1
 50
325.484517
 41
0.037922
210
0.6819983600624988
220
0.0000000000000006
230
-0.7313537016191701
  0
SEQEND
  8
BOOM1
 62
     2
  0
INSERT
  8
BOOM1
 62
     2
 66
     1
  2
CUBE
 10
-17.720342
 20
93.42297
 30
-2.958704
 41
0.05
 42
1.243588
 50
31.896399
 43
0.05
210
0.6819983600624988
220
0.0000000000000006
230
-0.7313537016191701
  0
ATTRIB
  8
0
 62
     0
 10
-17.720342
 20
93.42297
 30
-2.958704
 40
0.124359
  1
intersection
  2
TYPE
 70
     1
 50
31.896399
 41
0.040206
210
0.6819983600624988
220
0.0000000000000006
230
-0.7313537016191701
  0
ATTRIB
  8
0
 62
     0
 10
-17.610826
 20
93.247001
 30
-2.958704
 40
0.124359
  1
Cube
  2
NAME
 70
     1
 50
31.896399
 41
0.040206
210
0.6819983600624988
220
0.0000000000000006
230
-0.7313537016191701
  0
SEQEND
  8
BOOM1
 62
     2
  0
INSERT
  8
BOOM1
 62
     2
 66
     1
  2
CUBE
 10
-17.676504
 20
89.153814
 30
-2.958704
 41
0.05
 42
1.389673
 50
39.577148
 43
0.05
210
0.6819983600624988
220
0.0000000000000006
230
-0.7313537016191701
  0
ATTRIB
  8
0
 62
     0
 10
-17.676504
 20
89.153814
 30
-2.958704
 40
0.138967
  1
intersection
  2
TYPE
 70
     1
 50
39.577148
 41
0.03598
210
0.6819983600624988
220
0.0000000000000006
230
-0.7313537016191701
  0
ATTRIB
  8
0
 62
     0
 10
-17.52894
 20
88.975295
 30
-2.958704
 40
0.138967
  1
Cube
  2
NAME
 70
     1
 50
39.577148
 41
0.03598
210
0.6819983600624988
220
0.0000000000000006
230
-0.7313537016191701
  0
SEQEND
  8
BOOM1
 62
     2
  0
INSERT
  8
BOOM1
 62
     2
 66
     1
  2
CUBE
 10
-17.678195
 20
84.838754
 30
-2.958704
 41
0.05
 42
1.531102
 50
45.607412
 43
0.05
210
0.6819983600624988
220
0.0000000000000006
230
-0.7313537016191701
  0
ATTRIB
  8
0
 62
     0
 10
-17.678195
 20
84.838754
 30
-2.958704
 40
0.15311
  1
intersection
  2
TYPE
 70
     1
 50
45.607412
 41
0.032656
210
0.6819983600624988
220
0.0000000000000006
230
-0.7313537016191701
  0
ATTRIB
  8
0
 62
     0
 10
-17.49585
 20
84.660235
 30
-2.958704
 40
0.15311
  1
Cube
  2
NAME
 70
     1
 50
45.607412
 41
0.032656
210
0.6819983600624988
220
0.0000000000000006
230
-0.7313537016191701
  0
SEQEND
  8
BOOM1
 62
     2
  0
INSERT
  8
BOOM1
 62
     2
 66
     1
  2
CUBE
 10
-17.805202
 20
82.711827
 30
-2.958704
 41
0.05
 42
1.588092
 50
311.669357
 43
0.05
210
0.6819983600624988
220
0.0000000000000006
230
-0.7313537016191701
  0
ATTRIB
  8
0
 62
     0
 10
-17.805202
 20
82.711827
 30
-2.958704
 40
0.158809
  1
intersection
  2
TYPE
 70
     1
 50
311.669357
 41
0.031484
 51
0.0
210
0.6819983600624988
220
0.0000000000000006
230
-0.7313537016191701
  0
ATTRIB
  8
0
 62
     0
 10
-18.002918
 20
82.535858
 30
-2.958704
 40
0.158809
  1
Cube
  2
NAME
 70
     1
 50
311.669357
 41
0.031484
 51
0.0
210
0.6819983600624988
220
0.0000000000000006
230
-0.7313537016191701
  0
SEQEND
  8
BOOM1
 62
     2
  0
INSERT
  8
BOOM1
 62
     2
 66
     1
  2
CUBE
 10
60.399347
 20
62.888256
 30
23.200095
 41
-0.1
 42
6.5
 50
306.961314
 43
0.1
210
0.0400916684552262
220
-0.9986295347545741
230
0.0336409042140614
  0
ATTRIB
  8
0
 62
     0
 10
60.399347
 20
62.888256
 30
23.200095
 40
0.65
  1
intersection
  2
TYPE
 70
     1
 50
306.961314
 41
0.015385
 71
     2
210
0.0400916684552263
220
-0.9986295347545739
230
0.0336409042140614
  0
ATTRIB
  8
0
 62
     0
 10
59.533718
 20
62.236875
 30
23.200095
 40
0.65
  1
Cube
  2
NAME
 70
     1
 50
306.961314
 41
0.015385
 71
     2
210
0.0400916684552263
220
-0.9986295347545739
230
0.0336409042140614
  0
SEQEND
  8
BOOM1
 62
     2
  0
INSERT
  8
BOOM1
 62
     2
 66
     1
  2
CUBE
 10
60.148519
 20
61.536132
 30
23.200095
 41
0.05
 42
1.470215
 50
267.603396
 43
0.05
210
0.0400916684552262
220
-0.9986295347545741
230
0.0336409042140614
  0
ATTRIB
  8
0
 62
     0
 10
60.148519
 20
61.536132
 30
23.200095
 40
0.147022
  1
intersection
  2
TYPE
 70
     1
 50
267.603396
 41
0.034009
 51
0.0
210
0.0400916684552263
220
-0.9986295347545739
230
0.0336409042140614
  0
ATTRIB
  8
0
 62
     0
 10
59.903698
 20
61.546379
 30
23.200095
 40
0.147022
  1
Cube
  2
NAME
 70
     1
 50
267.603396
 41
0.034009
 51
0.0
210
0.0400916684552263
220
-0.9986295347545739
230
0.0336409042140614
  0
SEQEND
  8
BOOM1
 62
     2
  0
INSERT
  8
BOOM1
 62
     2
 66
     1
  2
CUBE
 10
63.434667
 20
64.33293
 30
23.200095
 41
0.05
 42
1.318509
 50
275.44583
 43
0.05
210
0.0400916684552262
220
-0.9986295347545741
230
0.0336409042140614
  0
ATTRIB
  8
0
 62
     0
 10
63.434667
 20
64.33293
 30
23.200095
 40
0.131851
  1
intersection
  2
TYPE
 70
     1
 50
275.44583
 41
0.037922
210
0.0400916684552262
220
-0.9986295347545741
230
0.0336409042140614
  0
ATTRIB
  8
0
 62
     0
 10
63.215907
 20
64.312074
 30
23.200095
 40
0.131851
  1
Cube
  2
NAME
 70
     1
 50
275.44583
 41
0.037922
210
0.0400916684552262
220
-0.9986295347545741
230
0.0336409042140614
  0
SEQEND
  8
BOOM1
 62
     2
  0
INSERT
  8
BOOM1
 62
     2
 66
     1
  2
CUBE
 10
65.113838
 20
65.616778
 30
23.200095
 41
0.05
 42
1.243588
 50
341.857712
 43
0.05
210
0.0400916684552262
220
-0.9986295347545741
230
0.0336409042140614
  0
ATTRIB
  8
0
 62
     0
 10
65.113838
 20
65.616778
 30
23.200095
 40
0.124359
  1
intersection
  2
TYPE
 70
     1
 50
341.857712
 41
0.040206
210
0.0400916684552262
220
-0.9986295347545741
230
0.0336409042140614
  0
ATTRIB
  8
0
 62
     0
 10
65.0493
 20
65.419817
 30
23.200095
 40
0.124359
  1
Cube
  2
NAME
 70
     1
 50
341.857712
 41
0.040206
210
0.0400916684552262
220
-0.9986295347545741
230
0.0336409042140614
  0
SEQEND
  8
BOOM1
 62
     2
  0
INSERT
  8
BOOM1
 62
     2
 66
     1
  2
CUBE
 10
61.869779
 20
62.841225
 30
23.200095
 41
0.05
 42
1.389673
 50
349.538461
 43
0.05
210
0.0400916684552262
220
-0.9986295347545741
230
0.0336409042140614
  0
ATTRIB
  8
0
 62
     0
 10
61.869779
 20
62.841225
 30
23.200095
 40
0.138967
  1
intersection
  2
TYPE
 70
     1
 50
349.538461
 41
0.03598
210
0.0400916684552262
220
-0.9986295347545741
230
0.0336409042140614
  0
ATTRIB
  8
0
 62
     0
 10
61.827724
 20
62.613463
 30
23.200095
 40
0.138967
  1
Cube
  2
NAME
 70
     1
 50
349.538461
 41
0.03598
210
0.0400916684552262
220
-0.9986295347545741
230
0.0336409042140614
  0
SEQEND
  8
BOOM1
 62
     2
  0
INSERT
  8
BOOM1
 62
     2
 66
     1
  2
CUBE
 10
58.561292
 20
60.071087
 30
23.200095
 41
0.05
 42
1.531102
 50
355.568726
 43
0.05
210
0.0400916684552262
220
-0.9986295347545741
230
0.0336409042140614
  0
ATTRIB
  8
0
 62
     0
 10
58.561292
 20
60.071087
 30
23.200095
 40
0.15311
  1
intersection
  2
TYPE
 70
     1
 50
355.568726
 41
0.032656
210
0.0400916684552262
220
-0.9986295347545741
230
0.0336409042140614
  0
ATTRIB
  8
0
 62
     0
 10
58.541576
 20
59.816666
 30
23.200095
 40
0.15311
  1
Cube
  2
NAME
 70
     1
 50
355.568726
 41
0.032656
210
0.0400916684552262
220
-0.9986295347545741
230
0.0336409042140614
  0
SEQEND
  8
BOOM1
 62
     2
  0
INSERT
  8
BOOM1
 62
     2
 66
     1
  2
CUBE
 10
56.849476
 20
58.802373
 30
23.200095
 41
0.05
 42
1.588092
 50
261.63067
 43
0.05
210
0.0400916684552262
220
-0.9986295347545741
230
0.0336409042140614
  0
ATTRIB
  8
0
 62
     0
 10
56.849476
 20
58.802373
 30
23.200095
 40
0.158809
  1
intersection
  2
TYPE
 70
     1
 50
261.63067
 41
0.031484
 51
0.0
210
0.0400916684552262
220
-0.9986295347545741
230
0.0336409042140614
  0
ATTRIB
  8
0
 62
     0
 10
56.587613
 20
58.840898
 30
23.200095
 40
0.158809
  1
Cube
  2
NAME
 70
     1
 50
261.63067
 41
0.031484
 51
0.0
210
0.0400916684552262
220
-0.9986295347545741
230
0.0336409042140614
  0
SEQEND
  8
BOOM1
 62
     2
  0
INSERT
  8
BOOM1
 62
     2
 66
     1
  2
CUBE
 10
16.784918
 20
87.170003
 30
13.965582
 41
-0.1
 42
6.5
 50
357.0
 43
0.1
210
-0.6018150231520482
220
-0.0000000000000006
230
0.7986355100472929
  0
ATTRIB
  8
0
 62
     0
 10
16.784918
 20
87.170003
 30
13.965582
 40
0.65
  1
intersection
  2
TYPE
 70
     1
 50
357.0
 41
0.015385
 71
     2
210
-0.6018150231520482
220
-0.0000000000000006
230
0.7986355100472928
  0
ATTRIB
  8
0
 62
     0
 10
16.72822
 20
86.088154
 30
13.965582
 40
0.65
  1
Cube
  2
NAME
 70
     1
 50
357.0
 41
0.015385
 71
     2
210
-0.6018150231520482
220
-0.0000000000000006
230
0.7986355100472928
  0
SEQEND
  8
BOOM1
 62
     2
  0
INSERT
  8
BOOM1
 62
     2
 66
     1
  2
CUBE
 10
17.660192
 20
86.10932
 30
13.965582
 41
0.05
 42
1.470215
 50
317.642083
 43
0.05
210
-0.6018150231520482
220
-0.0000000000000006
230
0.7986355100472929
  0
ATTRIB
  8
0
 62
     0
 10
17.660192
 20
86.10932
 30
13.965582
 40
0.147022
  1
intersection
  2
TYPE
 70
     1
 50
317.642083
 41
0.034009
 51
0.0
210
-0.6018150231520482
220
-0.0000000000000006
230
0.7986355100472928
  0
ATTRIB
  8
0
 62
     0
 10
17.495097
 20
85.92825
 30
13.965582
 40
0.147022
  1
Cube
  2
NAME
 70
     1
 50
317.642083
 41
0.034009
 51
0.0
210
-0.6018150231520482
220
-0.0000000000000006
230
0.7986355100472928
  0
SEQEND
  8
BOOM1
 62
     2
  0
INSERT
  8
BOOM1
 62
     2
 66
     1
  2
CUBE
 10
17.627103
 20
90.42438
 30
13.965582
 41
0.05
 42
1.318509
 50
325.484517
 43
0.05
210
-0.6018150231520482
220
-0.0000000000000006
230
0.7986355100472929
  0
ATTRIB
  8
0
 62
     0
 10
17.627103
 20
90.42438
 30
13.965582
 40
0.131851
  1
intersection
  2
TYPE
 70
     1
 50
325.484517
 41
0.037922
210
-0.6018150231520482
220
-0.0000000000000006
230
0.7986355100472929
  0
ATTRIB
  8
0
 62
     0
 10
17.502585
 20
90.243311
 30
13.965582
 40
0.131851
  1
Cube
  2
NAME
 70
     1
 50
325.484517
 41
0.037922
210
-0.6018150231520482
220
-0.0000000000000006
230
0.7986355100472929
  0
SEQEND
  8
BOOM1
 62
     2
  0
INSERT
  8
BOOM1
 62
     2
 66
     1
  2
CUBE
 10
17.721543
 20
92.536006
 30
13.965582
 41
0.05
 42
1.243588
 50
31.896399
 43
0.05
210
-0.6018150231520482
220
-0.0000000000000006
230
0.7986355100472929
  0
ATTRIB
  8
0
 62
     0
 10
17.721543
 20
92.536006
 30
13.965582
 40
0.124359
  1
intersection
  2
TYPE
 70
     1
 50
31.896399
 41
0.040206
210
-0.6018150231520482
220
-0.0000000000000006
230
0.7986355100472929
  0
ATTRIB
  8
0
 62
     0
 10
17.831058
 20
92.360037
 30
13.965582
 40
0.124359
  1
Cube
  2
NAME
 70
     1
 50
31.896399
 41
0.040206
210
-0.6018150231520482
220
-0.0000000000000006
230
0.7986355100472929
  0
SEQEND
  8
BOOM1
 62
     2
  0
INSERT
  8
BOOM1
 62
     2
 66
     1
  2
CUBE
 10
17.765381
 20
88.26685
 30
13.965582
 41
0.05
 42
1.389673
 50
39.577148
 43
0.05
210
-0.6018150231520482
220
-0.0000000000000006
230
0.7986355100472929
  0
ATTRIB
  8
0
 62
     0
 10
17.765381
 20
88.26685
 30
13.965582
 40
0.138967
  1
intersection
  2
TYPE
 70
     1
 50
39.577148
 41
0.03598
210
-0.6018150231520482
220
-0.0000000000000006
230
0.7986355100472929
  0
ATTRIB
  8
0
 62
     0
 10
17.912945
 20
88.088331
 30
13.965582
 40
0.138967
  1
Cube
  2
NAME
 70
     1
 50
39.577148
 41
0.03598
210
-0.6018150231520482
220
-0.0000000000000006
230
0.7986355100472929
  0
SEQEND
  8
BOOM1
 62
     2
  0
INSERT
  8
BOOM1
 62
     2
 66
     1
  2
CUBE
 10
17.76369
 20
83.951789
 30
13.965582
 41
0.05
 42
1.531102
 50
45.607412
 43
0.05
210
-0.6018150231520482
220
-0.0000000000000006
230
0.7986355100472929
  0
ATTRIB
  8
0
 62
     0
 10
17.76369
 20
83.951789
 30
13.965582
 40
0.15311
  1
intersection
  2
TYPE
 70
     1
 50
45.607412
 41
0.032656
210
-0.6018150231520482
220
-0.0000000000000006
230
0.7986355100472929
  0
ATTRIB
  8
0
 62
     0
 10
17.946034
 20
83.77327
 30
13.965582
 40
0.15311
  1
Cube
  2
NAME
 70
     1
 50
45.607412
 41
0.032656
210
-0.6018150231520482
220
-0.0000000000000006
230
0.7986355100472929
  0
SEQEND
  8
BOOM1
 62
     2
  0
INSERT
  8
BOOM1
 62
     2
 66
     1
  2
CUBE
 10
17.636683
 20
81.824862
 30
13.965582
 41
0.05
 42
1.588092
 50
311.669357
 43
0.05
210
-0.6018150231520482
220
-0.0000000000000006
230
0.7986355100472929
  0
ATTRIB
  8
0
 62
     0
 10
17.636683
 20
81.824862
 30
13.965582
 40
0.158809
  1
intersection
  2
TYPE
 70
     1
 50
311.669357
 41
0.031484
 51
0.0
210
-0.6018150231520482
220
-0.0000000000000006
230
0.7986355100472929
  0
ATTRIB
  8
0
 62
     0
 10
17.438967
 20
81.648894
 30
13.965582
 40
0.158809
  1
Cube
  2
NAME
 70
     1
 50
311.669357
 41
0.031484
 51
0.0
210
-0.6018150231520482
220
-0.0000000000000006
230
0.7986355100472929
  0
SEQEND
  8
BOOM1
 62
     2
  0
INSERT
  8
BOOM1
 62
     2
 66
     1
  2
CUBE
 10
-66.723423
 20
67.019197
 30
-17.099962
 41
0.1
 42
0.604577
 50
140.0
 43
0.1
210
-0.0000000000000009
220
1.0
230
0.0
  0
ATTRIB
  8
0
 62
     0
 10
-66.723423
 20
67.019197
 30
-17.099962
 40
0.060458
  1
intersection
  2
TYPE
 70
     1
 50
140.0
 41
0.165405
210
-0.0000000000000009
220
1.0
230
0.0
  0
ATTRIB
  8
0
 62
     0
 10
-66.658654
 20
67.096386
 30
-17.099962
 40
0.060458
  1
Cube
  2
NAME
 70
     1
 50
140.0
 41
0.165405
210
-0.0000000000000009
220
1.0
230
0.0
  0
SEQEND
  8
BOOM1
 62
     2
  0
INSERT
  8
BOOM1
 62
     2
 66
     1
  2
CUBE
 10
-17.744004
 20
94.192217
 30
-7.852776
 41
0.1
 42
0.604577
 50
90.0
 43
0.1
210
0.6427876096865396
220
0.0000000000000006
230
-0.7660444431189779
  0
ATTRIB
  8
0
 62
     0
 10
-17.744004
 20
94.192217
 30
-7.852776
 40
0.060458
  1
intersection
  2
TYPE
 70
     1
 50
90.0
 41
0.165405
210
0.6427876096865396
220
0.0000000000000006
230
-0.766044443118978
  0
ATTRIB
  8
0
 62
     0
 10
-17.643241
 20
94.192217
 30
-7.852776
 40
0.060458
  1
Cube
  2
NAME
 70
     1
 50
90.0
 41
0.165405
210
0.6427876096865396
220
0.0000000000000006
230
-0.766044443118978
  0
SEQEND
  8
BOOM1
 62
     2
  0
INSERT
  8
BOOM1
 62
     2
 66
     1
  2
CUBE
 10
66.693775
 20
67.05453
 30
18.341922
 41
0.1
 42
0.604577
 50
40.0
 43
0.1
210
0.0000000000000009
220
-1.0
230
0.0
  0
ATTRIB
  8
0
 62
     0
 10
66.693775
 20
67.05453
 30
18.341922
 40
0.060458
  1
intersection
  2
TYPE
 70
     1
 50
40.0
 41
0.165405
210
0.0000000000000009
220
-1.0
230
0.0
  0
ATTRIB
  8
0
 62
     0
 10
66.758544
 20
66.977341
 30
18.341922
 40
0.060458
  1
Cube
  2
NAME
 70
     1
 50
40.0
 41
0.165405
210
0.0000000000000009
220
-1.0
230
0.0
  0
SEQEND
  8
BOOM1
 62
     2
  0
INSERT
  8
BOOM1
 62
     2
 66
     1
  2
CUBE
 10
17.69788
 20
94.192217
 30
9.094736
 41
0.1
 42
0.604577
 50
90.0
 43
0.1
210
-0.6427876096865396
220
-0.0000000000000006
230
0.7660444431189779
  0
ATTRIB
  8
0
 62
     0
 10
17.69788
 20
94.192217
 30
9.094736
 40
0.060458
  1
intersection
  2
TYPE
 70
     1
 50
90.0
 41
0.165405
210
-0.6427876096865396
220
-0.0000000000000006
230
0.766044443118978
  0
ATTRIB
  8
0
 62
     0
 10
17.798643
 20
94.192217
 30
9.094736
 40
0.060458
  1
Cube
  2
NAME
 70
     1
 50
90.0
 41
0.165405
210
-0.6427876096865396
220
-0.0000000000000006
230
0.766044443118978
  0
SEQEND
  8
BOOM1
 62
     2
  0
INSERT
  8
BOOM1
 62
     2
 66
     1
  2
CUBE
 10
-38.817304
 20
43.638161
 30
-13.287803
 41
-0.05
 42
1.531102
 50
184.431274
 43
0.05
210
0.0400916684552238
220
0.9986295347545741
230
0.0336409042140608
  0
ATTRIB
  8
0
 62
     0
 10
-51.0232
 20
81.319395
 30
-28.481938
 40
0.15311
  1
intersection
  2
TYPE
 70
     1
 50
184.431274
 41
0.032656
 71
     2
210
0.0400916684552238
220
0.9986295347545741
230
0.0336409042140608
  0
ATTRIB
  8
0
 62
     0
 10
-51.042917
 20
81.573816
 30
-28.481938
 40
0.15311
  1
Cube
  2
NAME
 70
     1
 50
184.431274
 41
0.032656
 71
     2
210
0.0400916684552238
220
0.9986295347545741
230
0.0336409042140608
  0
SEQEND
  8
BOOM1
 62
     2
  0
INSERT
  8
BOOM1
 62
     2
 66
     1
  2
CUBE
 10
-35.508818
 20
40.868022
 30
-13.287803
 41
-0.05
 42
1.389673
 50
190.461539
 43
0.05
210
0.0400916684552238
220
0.9986295347545741
230
0.0336409042140608
  0
ATTRIB
  8
0
 62
     0
 10
-35.508818
 20
40.868022
 30
-13.287803
 40
0.138967
  1
intersection
  2
TYPE
 70
     1
 50
190.461539
 41
0.03598
 71
     2
210
0.0400916684552238
220
0.9986295347545741
230
0.0336409042140608
  0
ATTRIB
  8
0
 62
     0
 10
-35.550873
 20
41.095784
 30
-13.287803
 40
0.138967
  1
Cube
  2
NAME
 70
     1
 50
190.461539
 41
0.03598
 71
     2
210
0.0400916684552238
220
0.9986295347545741
230
0.0336409042140608
  0
SEQEND
  8
BOOM1
 62
     2
  0
INSERT
  8
BOOM1
 62
     2
 66
     1
  2
CUBE
 10
-37.230078
 20
42.173115
 30
-13.287803
 41
-0.05
 42
1.470215
 50
272.396604
 43
0.05
210
0.0400916684552238
220
0.9986295347545741
230
0.0336409042140608
  0
ATTRIB
  8
0
 62
     0
 10
-37.230078
 20
42.173115
 30
-13.287803
 40
0.147022
  1
intersection
  2
TYPE
 70
     1
 50
272.396604
 41
0.034009
 51
0.0
 71
     2
210
0.0400916684552238
220
0.9986295347545741
230
0.0336409042140608
  0
ATTRIB
  8
0
 62
     0
 10
-37.474899
 20
42.162868
 30
-13.287803
 40
0.147022
  1
Cube
  2
NAME
 70
     1
 50
272.396604
 41
0.034009
 51
0.0
 71
     2
210
0.0400916684552238
220
0.9986295347545741
230
0.0336409042140608
  0
SEQEND
  8
BOOM1
 62
     2
  0
INSERT
  8
BOOM1
 62
     2
 66
     1
  2
CUBE
 10
-32.031489
 20
37.737041
 30
-10.703624
 41
-0.1
 42
0.604577
 50
140.154902
 43
0.1
210
0.080073448433951
220
0.9945218953682736
230
0.067189601048022
  0
ATTRIB
  8
0
 62
     0
 10
-32.031489
 20
37.737041
 30
-10.703624
 40
0.060458
  1
intersection
  2
TYPE
 70
     1
 50
140.154902
 41
0.165405
 71
     2
210
0.080073448433951
220
0.9945218953682736
230
0.067189601048022
  0
ATTRIB
  8
0
 62
     0
 10
-31.966929
 20
37.814405
 30
-10.703624
 40
0.060458
  1
Cube
  2
NAME
 70
     1
 50
140.154902
 41
0.165405
 71
     2
210
0.080073448433951
220
0.9945218953682736
230
0.067189601048022
  0
SEQEND
  8
BOOM1
 62
     2
  0
INSERT
  8
BOOM1
 62
     2
 66
     1
  2
CUBE
 10
-32.264759
 20
38.09247
 30
-13.287803
 41
-0.05
 42
1.243588
 50
198.142288
 43
0.05
210
0.0400916684552238
220
0.9986295347545741
230
0.0336409042140608
  0
ATTRIB
  8
0
 62
     0
 10
-32.264759
 20
38.09247
 30
-13.287803
 40
0.124359
  1
intersection
  2
TYPE
 70
     1
 50
198.142288
 41
0.040206
 71
     2
210
0.0400916684552238
220
0.9986295347545741
230
0.0336409042140608
  0
ATTRIB
  8
0
 62
     0
 10
-32.329297
 20
38.28943
 30
-13.287803
 40
0.124359
  1
Cube
  2
NAME
 70
     1
 50
198.142288
 41
0.040206
 71
     2
210
0.0400916684552238
220
0.9986295347545741
230
0.0336409042140608
  0
SEQEND
  8
BOOM1
 62
     2
  0
INSERT
  8
BOOM1
 62
     2
 66
     1
  2
CUBE
 10
-33.94393
 20
39.376317
 30
-13.287803
 41
-0.05
 42
1.318509
 50
264.55417
 43
0.05
210
0.0400916684552238
220
0.9986295347545741
230
0.0336409042140608
  0
ATTRIB
  8
0
 62
     0
 10
-33.94393
 20
39.376317
 30
-13.287803
 40
0.131851
  1
intersection
  2
TYPE
 70
     1
 50
264.55417
 41
0.037922
 71
     2
210
0.0400916684552238
220
0.9986295347545741
230
0.0336409042140608
  0
ATTRIB
  8
0
 62
     0
 10
-34.16269
 20
39.397173
 30
-13.287803
 40
0.131851
  1
Cube
  2
NAME
 70
     1
 50
264.55417
 41
0.037922
 71
     2
210
0.0400916684552238
220
0.9986295347545741
230
0.0336409042140608
  0
SEQEND
  8
BOOM1
 62
     2
  0
INSERT
  8
BOOM1
 62
     2
 66
     1
  2
CUBE
 10
-40.529121
 20
44.906874
 30
-13.287803
 41
-0.05
 42
1.588092
 50
278.36933
 43
0.05
210
0.0400916684552238
220
0.9986295347545741
230
0.0336409042140608
  0
ATTRIB
  8
0
 62
     0
 10
-40.529121
 20
44.906874
 30
-13.287803
 40
0.158809
  1
intersection
  2
TYPE
 70
     1
 50
278.36933
 41
0.031484
 51
0.0
 71
     2
210
0.0400916684552238
220
0.9986295347545741
230
0.0336409042140608
  0
ATTRIB
  8
0
 62
     0
 10
-40.790984
 20
44.868349
 30
-13.287803
 40
0.158809
  1
Cube
  2
NAME
 70
     1
 50
278.36933
 41
0.031484
 51
0.0
 71
     2
210
0.0400916684552238
220
0.9986295347545741
230
0.0336409042140608
  0
SEQEND
  8
BOOM1
 62
     2
  0
INSERT
  8
BOOM1
 62
     2
 66
     1
  2
CUBE
 10
-36.97925
 20
40.820991
 30
-13.287803
 41
0.1
 42
6.5
 50
233.038686
 43
0.1
210
0.0400916684552238
220
0.9986295347545741
230
0.0336409042140608
  0
ATTRIB
  8
0
 62
     0
 10
-36.97925
 20
40.820991
 30
-13.287803
 40
0.65
  1
intersection
  2
TYPE
 70
     1
 50
233.038686
 41
0.015385
210
0.0400916684552238
220
0.9986295347545741
230
0.0336409042140608
  0
ATTRIB
  8
0
 62
     0
 10
-37.844879
 20
41.472373
 30
-13.287803
 40
0.65
  1
Cube
  2
NAME
 70
     1
 50
233.038686
 41
0.015385
210
0.0400916684552238
220
0.9986295347545741
230
0.0336409042140608
  0
SEQEND
  8
BOOM1
 62
     2
  0
INSERT
  8
BOOM1
 62
     2
 66
     1
  2
CUBE
 10
15.81705
 20
54.303668
 30
6.483424
 41
0.1
 42
6.5
 50
177.344478
 43
0.1
210
-0.6817787337078406
220
0.0054705970797174
230
0.7315379900123606
  0
ATTRIB
  8
0
 62
     0
 10
-1.080092
 20
34.951211
 30
45.43501
 40
0.65
  1
intersection
  2
TYPE
 70
     1
 50
177.344478
 41
0.015385
210
-0.6817787337078407
220
0.0054705970797174
230
0.7315379900123606
  0
ATTRIB
  8
0
 62
     0
 10
-1.0299
 20
36.033381
 30
45.43501
 40
0.65
  1
Cube
  2
NAME
 70
     1
 50
177.344478
 41
0.015385
210
-0.6817787337078407
220
0.0054705970797174
230
0.7315379900123606
  0
SEQEND
  8
BOOM1
 62
     2
  0
INSERT
  8
BOOM1
 62
     2
 66
     1
  2
CUBE
 10
32.522201
 20
38.18498
 30
22.105509
 41
0.05
 42
1.318509
 50
95.44583
 43
0.05
210
0.0400916684552256
220
-0.9986295347545739
230
0.0336409042140608
  0
ATTRIB
  8
0
 62
     0
 10
32.522201
 20
38.18498
 30
22.105509
 40
0.131851
  1
intersection
  2
TYPE
 70
     1
 50
95.44583
 41
0.037922
210
0.0400916684552256
220
-0.9986295347545739
230
0.0336409042140608
  0
ATTRIB
  8
0
 62
     0
 10
32.740961
 20
38.205836
 30
22.105509
 40
0.131851
  1
Cube
  2
NAME
 70
     1
 50
95.44583
 41
0.037922
210
0.0400916684552256
220
-0.9986295347545739
230
0.0336409042140608
  0
SEQEND
  8
BOOM1
 62
     2
  0
INSERT
  8
BOOM1
 62
     2
 66
     1
  2
CUBE
 10
34.087089
 20
39.676685
 30
22.105509
 41
0.05
 42
1.389673
 50
169.538461
 43
0.05
210
0.0400916684552256
220
-0.9986295347545739
230
0.0336409042140608
  0
ATTRIB
  8
0
 62
     0
 10
34.087089
 20
39.676685
 30
22.105509
 40
0.138967
  1
intersection
  2
TYPE
 70
     1
 50
169.538461
 41
0.03598
210
0.0400916684552256
220
-0.9986295347545739
230
0.0336409042140608
  0
ATTRIB
  8
0
 62
     0
 10
34.129144
 20
39.904447
 30
22.105509
 40
0.138967
  1
Cube
  2
NAME
 70
     1
 50
169.538461
 41
0.03598
210
0.0400916684552256
220
-0.9986295347545739
230
0.0336409042140608
  0
SEQEND
  8
BOOM1
 62
     2
  0
INSERT
  8
BOOM1
 62
     2
 66
     1
  2
CUBE
 10
35.808349
 20
40.981778
 30
22.105509
 41
0.05
 42
1.470215
 50
87.603396
 43
0.05
210
0.0400916684552256
220
-0.9986295347545739
230
0.0336409042140608
  0
ATTRIB
  8
0
 62
     0
 10
35.808349
 20
40.981778
 30
22.105509
 40
0.147022
  1
intersection
  2
TYPE
 70
     1
 50
87.603396
 41
0.034009
 51
0.0
210
0.0400916684552256
220
-0.9986295347545741
230
0.0336409042140608
  0
ATTRIB
  8
0
 62
     0
 10
36.05317
 20
40.971531
 30
22.105509
 40
0.147022
  1
Cube
  2
NAME
 70
     1
 50
87.603396
 41
0.034009
 51
0.0
210
0.0400916684552256
220
-0.9986295347545741
230
0.0336409042140608
  0
SEQEND
  8
BOOM1
 62
     2
  0
INSERT
  8
BOOM1
 62
     2
 66
     1
  2
CUBE
 10
39.107392
 20
43.715537
 30
22.105509
 41
0.05
 42
1.588092
 50
81.63067
 43
0.05
210
0.0400916684552256
220
-0.9986295347545739
230
0.0336409042140608
  0
ATTRIB
  8
0
 62
     0
 10
39.107392
 20
43.715537
 30
22.105509
 40
0.158809
  1
intersection
  2
TYPE
 70
     1
 50
81.63067
 41
0.031484
 51
0.0
210
0.0400916684552256
220
-0.9986295347545739
230
0.0336409042140608
  0
ATTRIB
  8
0
 62
     0
 10
39.369255
 20
43.677012
 30
22.105509
 40
0.158809
  1
Cube
  2
NAME
 70
     1
 50
81.63067
 41
0.031484
 51
0.0
210
0.0400916684552256
220
-0.9986295347545739
230
0.0336409042140608
  0
SEQEND
  8
BOOM1
 62
     2
  0
INSERT
  8
BOOM1
 62
     2
 66
     1
  2
CUBE
 10
37.395575
 20
42.446823
 30
22.105509
 41
0.05
 42
1.531102
 50
175.568726
 43
0.05
210
0.0400916684552256
220
-0.9986295347545739
230
0.0336409042140608
  0
ATTRIB
  8
0
 62
     0
 10
37.395575
 20
42.446823
 30
22.105509
 40
0.15311
  1
intersection
  2
TYPE
 70
     1
 50
175.568726
 41
0.032656
210
0.0400916684552256
220
-0.9986295347545739
230
0.0336409042140608
  0
ATTRIB
  8
0
 62
     0
 10
37.415292
 20
42.701244
 30
22.105509
 40
0.15311
  1
Cube
  2
NAME
 70
     1
 50
175.568726
 41
0.032656
210
0.0400916684552256
220
-0.9986295347545739
230
0.0336409042140608
  0
SEQEND
  8
BOOM1
 62
     2
  0
INSERT
  8
BOOM1
 62
     2
 66
     1
  2
CUBE
 10
29.187107
 20
35.363396
 30
24.544106
 41
0.1
 42
0.604577
 50
219.845098
 43
0.1
210
0.0800734484339529
220
-0.9945218953682734
230
0.067189601048022
  0
ATTRIB
  8
0
 62
     0
 10
29.187107
 20
35.363396
 30
24.544106
 40
0.060458
  1
intersection
  2
TYPE
 70
     1
 50
219.845098
 41
0.165405
210
0.0800734484339529
220
-0.9945218953682734
230
0.067189601048022
  0
ATTRIB
  8
0
 62
     0
 10
29.122547
 20
35.44076
 30
24.544106
 40
0.060458
  1
Cube
  2
NAME
 70
     1
 50
219.845098
 41
0.165405
210
0.0800734484339529
220
-0.9945218953682734
230
0.067189601048022
  0
SEQEND
  8
BOOM1
 62
     2
  0
INSERT
  8
BOOM1
 62
     2
 66
     1
  2
CUBE
 10
30.84303
 20
36.901132
 30
22.105509
 41
0.05
 42
1.243588
 50
161.857712
 43
0.05
210
0.0400916684552256
220
-0.9986295347545739
230
0.0336409042140608
  0
ATTRIB
  8
0
 62
     0
 10
30.84303
 20
36.901132
 30
22.105509
 40
0.124359
  1
intersection
  2
TYPE
 70
     1
 50
161.857712
 41
0.040206
210
0.0400916684552256
220
-0.9986295347545739
230
0.0336409042140608
  0
ATTRIB
  8
0
 62
     0
 10
30.907568
 20
37.098093
 30
22.105509
 40
0.124359
  1
Cube
  2
NAME
 70
     1
 50
161.857712
 41
0.040206
210
0.0400916684552256
220
-0.9986295347545739
230
0.0336409042140608
  0
SEQEND
  8
BOOM1
 62
     2
  0
INSERT
  8
BOOM1
 62
     2
 66
     1
  2
CUBE
 10
35.557521
 20
39.629653
 30
22.105509
 41
-0.1
 42
6.5
 50
126.961314
 43
0.1
210
0.0400916684552256
220
-0.9986295347545739
230
0.0336409042140608
  0
ATTRIB
  8
0
 62
     0
 10
35.557521
 20
39.629653
 30
22.105509
 40
0.65
  1
intersection
  2
TYPE
 70
     1
 50
126.961314
 41
0.015385
 71
     2
210
0.0400916684552256
220
-0.9986295347545741
230
0.0336409042140608
  0
ATTRIB
  8
0
 62
     0
 10
36.42315
 20
40.281035
 30
22.105509
 40
0.65
  1
Cube
  2
NAME
 70
     1
 50
126.961314
 41
0.015385
 71
     2
210
0.0400916684552256
220
-0.9986295347545741
230
0.0336409042140608
  0
SEQEND
  8
BOOM1
 62
     2
  0
INSERT
  8
BOOM1
 62
     2
 66
     1
  2
CUBE
 10
19.623694
 20
54.095636
 30
6.677313
 41
-0.1
 42
6.5
 50
182.655522
 43
0.1
210
-0.6817787337078407
220
-0.0054705970797187
230
0.7315379900123608
  0
ATTRIB
  8
0
 62
     0
 10
19.623694
 20
54.095636
 30
6.677313
 40
0.65
  1
intersection
  2
TYPE
 70
     1
 50
182.655522
 41
0.015385
 71
     2
210
-0.6817787337078407
220
-0.0054705970797187
230
0.7315379900123606
  0
ATTRIB
  8
0
 62
     0
 10
19.573502
 20
55.177806
 30
6.677313
 40
0.65
  1
Cube
  2
NAME
 70
     1
 50
182.655522
 41
0.015385
 71
     2
210
-0.6817787337078407
220
-0.0054705970797187
230
0.7315379900123606
  0
SEQEND
  8
BOOM1
 62
     2
  0
INSERT
  8
BOOM1
 62
     2
 66
     1
  2
CUBE
 10
-23.635001
 20
47.515898
 30
-13.026757
 41
0.15
 42
9.5
 50
0.0
 43
0.15
210
-0.0000000000000009
220
0.9968977508849669
230
0.078707523658763
  0
ATTRIB
  8
0
 62
     0
 10
31.683676
 20
76.965587
 30
-5.567614
 40
0.95
  1
union
  2
TYPE
 70
     1
 50
0.0
 41
0.026316
210
-0.0000000000000009
220
0.9968977508849669
230
0.078707523658763
  0
ATTRIB
  8
0
 62
     0
 10
31.683676
 20
75.382254
 30
-5.567614
 40
0.95
  1
Hbeam
  2
NAME
 70
     1
 50
0.0
 41
0.026316
210
-0.0000000000000009
220
0.9968977508849669
230
0.078707523658763
  0
SEQEND
  8
BOOM1
 62
     2
  0
INSERT
  8
BOOM1
 62
     2
 66
     1
  2
CUBE
 10
-26.797296
 20
47.294366
 30
-13.026757
 41
0.15
 42
9.802555
 50
341.179823
 43
0.15
210
-0.0000000000000009
220
0.9968977508849669
230
0.078707523658763
  0
ATTRIB
  8
0
 62
     0
 10
1.815788
 20
74.894366
 30
4.699315
 40
0.980255
  1
union
  2
TYPE
 70
     1
 50
341.179823
 41
0.025504
210
-0.0000000000000009
220
0.9968977508849669
230
0.078707523658763
  0
ATTRIB
  8
0
 62
     0
 10
1.288738
 20
73.347955
 30
4.699315
 40
0.980255
  1
Hbeam
  2
NAME
 70
     1
 50
341.179823
 41
0.025504
210
-0.0000000000000009
220
0.9968977508849669
230
0.078707523658763
  0
SEQEND
  8
BOOM1
 62
     2
  0
INSERT
  8
BOOM1
 62
     2
 66
     1
  2
CUBE
 10
-25.963823
 20
43.50111
 30
-13.026757
 41
0.1
 42
2.538294
 50
293.440283
 43
0.1
210
-0.0000000000000009
220
0.9968977508849669
230
0.078707523658763
  0
ATTRIB
  8
0
 62
     0
 10
13.026757
 20
45.409707
 30
-22.459412
 40
0.253829
  1
intersection
  2
TYPE
 70
     1
 50
293.440283
 41
0.019698
210
-0.0000000000000009
220
0.9968977508849669
230
0.078707523658763
  0
ATTRIB
  8
0
 62
     0
 10
12.63862
 20
45.241421
 30
-22.459412
 40
0.253829
  1
Cube
  2
NAME
 70
     1
 50
293.440283
 41
0.019698
210
-0.0000000000000009
220
0.9968977508849669
230
0.078707523658763
  0
SEQEND
  8
BOOM1
 62
     2
  0
INSERT
  8
BOOM1
 62
     2
 66
     1
  2
CUBE
 10
-25.252919
 20
45.711569
 30
-13.026757
 41
0.1
 42
2.014806
 50
53.41893
 43
0.1
210
-0.0000000000000009
220
0.9968977508849669
230
0.078707523658763
  0
ATTRIB
  8
0
 62
     0
 10
-25.252919
 20
45.711569
 30
-13.026757
 40
0.201481
  1
intersection
  2
TYPE
 70
     1
 50
53.41893
 41
0.024816
210
-0.0000000000000009
220
0.9968977508849669
230
0.078707523658763
  0
ATTRIB
  8
0
 62
     0
 10
-24.983266
 20
45.511445
 30
-13.026757
 40
0.201481
  1
Cube
  2
NAME
 70
     1
 50
53.41893
 41
0.024816
210
-0.0000000000000009
220
0.9968977508849669
230
0.078707523658763
  0
SEQEND
  8
BOOM1
 62
     2
  0
INSERT
  8
BOOM1
 62
     2
 66
     1
  2
CUBE
 10
-25.228405
 20
47.75829
 30
-13.026757
 41
0.1
 42
1.847502
 50
297.251927
 43
0.1
210
-0.0000000000000009
220
0.9968977508849669
230
0.078707523658763
  0
ATTRIB
  8
0
 62
     0
 10
-25.228405
 20
47.75829
 30
-13.026757
 40
0.18475
  1
intersection
  2
TYPE
 70
     1
 50
297.251927
 41
0.027064
210
-0.0000000000000009
220
0.9968977508849669
230
0.078707523658763
  0
ATTRIB
  8
0
 62
     0
 10
-25.502144
 20
47.617293
 30
-13.026757
 40
0.18475
  1
Cube
  2
NAME
 70
     1
 50
297.251927
 41
0.027064
210
-0.0000000000000009
220
0.9968977508849669
230
0.078707523658763
  0
SEQEND
  8
BOOM1
 62
     2
  0
INSERT
  8
BOOM1
 62
     2
 66
     1
  2
CUBE
 10
-24.591044
 20
49.695852
 30
-13.026757
 41
0.1
 42
1.45106
 50
41.212853
 43
0.1
210
-0.0000000000000009
220
0.9968977508849669
230
0.078707523658763
  0
ATTRIB
  8
0
 62
     0
 10
-24.591044
 20
49.695852
 30
-13.026757
 40
0.145106
  1
intersection
  2
TYPE
 70
     1
 50
41.212853
 41
0.034458
210
-0.0000000000000009
220
0.9968977508849669
230
0.078707523658763
  0
ATTRIB
  8
0
 62
     0
 10
-24.431703
 20
49.513921
 30
-13.026757
 40
0.145106
  1
Cube
  2
NAME
 70
     1
 50
41.212853
 41
0.034458
210
-0.0000000000000009
220
0.9968977508849669
230
0.078707523658763
  0
SEQEND
  8
BOOM1
 62
     2
  0
INSERT
  8
BOOM1
 62
     2
 66
     1
  2
CUBE
 10
-24.56653
 20
51.578835
 30
-13.026757
 41
0.1
 42
1.260081
 50
308.906703
 43
0.1
210
-0.0000000000000009
220
0.9968977508849669
230
0.078707523658763
  0
ATTRIB
  8
0
 62
     0
 10
-24.56653
 20
51.578835
 30
-13.026757
 40
0.126008
  1
intersection
  2
TYPE
 70
     1
 50
308.906703
 41
0.03968
210
-0.0000000000000009
220
0.9968977508849669
230
0.078707523658763
  0
ATTRIB
  8
0
 62
     0
 10
-24.729956
 20
51.446935
 30
-13.026757
 40
0.126008
  1
Cube
  2
NAME
 70
     1
 50
308.906703
 41
0.03968
210
-0.0000000000000009
220
0.9968977508849669
230
0.078707523658763
  0
SEQEND
  8
BOOM1
 62
     2
  0
INSERT
  8
BOOM1
 62
     2
 66
     1
  2
CUBE
 10
-24.198821
 20
52.64313
 30
-13.026757
 41
0.1
 42
0.694854
 50
61.882179
 43
0.1
210
-0.0000000000000009
220
0.9968977508849669
230
0.078707523658763
  0
ATTRIB
  8
0
 62
     0
 10
-24.198821
 20
52.64313
 30
-13.026757
 40
0.069485
  1
intersection
  2
TYPE
 70
     1
 50
61.882179
 41
0.071958
210
-0.0000000000000009
220
0.9968977508849669
230
0.078707523658763
  0
ATTRIB
  8
0
 62
     0
 10
-24.09668
 20
52.588551
 30
-13.026757
 40
0.069485
  1
Cube
  2
NAME
 70
     1
 50
61.882179
 41
0.071958
210
-0.0000000000000009
220
0.9968977508849669
230
0.078707523658763
  0
SEQEND
  8
BOOM1
 62
     2
  0
INSERT
  8
BOOM1
 62
     2
 66
     1
  2
CUBE
 10
23.635001
 20
44.725548
 30
22.315405
 41
-0.15
 42
9.5
 50
0.0
 43
0.15
210
0.0000000000000009
220
-0.9968977508849669
230
0.0787075236587631
  0
ATTRIB
  8
0
 62
     0
 10
23.635001
 20
44.725548
 30
22.315405
 40
0.95
  1
union
  2
TYPE
 70
     1
 50
0.0
 41
0.026316
 71
     2
210
0.0000000000000009
220
-0.9968977508849668
230
0.078707523658763
  0
ATTRIB
  8
0
 62
     0
 10
23.635001
 20
43.142214
 30
22.315405
 40
0.95
  1
Hbeam
  2
NAME
 70
     1
 50
0.0
 41
0.026316
 71
     2
210
0.0000000000000009
220
-0.9968977508849668
230
0.078707523658763
  0
SEQEND
  8
BOOM1
 62
     2
  0
INSERT
  8
BOOM1
 62
     2
 66
     1
  2
CUBE
 10
26.797296
 20
44.504016
 30
22.315405
 41
-0.15
 42
9.802555
 50
18.820177
 43
0.15
210
0.0000000000000009
220
-0.9968977508849669
230
0.0787075236587631
  0
ATTRIB
  8
0
 62
     0
 10
-1.815788
 20
72.104016
 30
40.041476
 40
0.980255
  1
union
  2
TYPE
 70
     1
 50
18.820177
 41
0.025504
 71
     2
210
0.0000000000000009
220
-0.9968977508849669
230
0.0787075236587631
  0
ATTRIB
  8
0
 62
     0
 10
-1.288738
 20
70.557604
 30
40.041476
 40
0.980255
  1
Hbeam
  2
NAME
 70
     1
 50
18.820177
 41
0.025504
 71
     2
210
0.0000000000000009
220
-0.9968977508849669
230
0.0787075236587631
  0
SEQEND
  8
BOOM1
 62
     2
  0
INSERT
  8
BOOM1
 62
     2
 66
     1
  2
CUBE
 10
25.228405
 20
44.967939
 30
22.315405
 41
-0.1
 42
1.847502
 50
62.748073
 43
0.1
210
0.0000000000000009
220
-0.9968977508849669
230
0.0787075236587631
  0
ATTRIB
  8
0
 62
     0
 10
25.228405
 20
44.967939
 30
22.315405
 40
0.18475
  1
intersection
  2
TYPE
 70
     1
 50
62.748073
 41
0.027064
 71
     2
210
0.0000000000000009
220
-0.9968977508849669
230
0.0787075236587631
  0
ATTRIB
  8
0
 62
     0
 10
25.502144
 20
44.826943
 30
22.315405
 40
0.18475
  1
Cube
  2
NAME
 70
     1
 50
62.748073
 41
0.027064
 71
     2
210
0.0000000000000009
220
-0.9968977508849669
230
0.0787075236587631
  0
SEQEND
  8
BOOM1
 62
     2
  0
INSERT
  8
BOOM1
 62
     2
 66
     1
  2
CUBE
 10
25.252919
 20
42.921218
 30
22.315405
 41
-0.1
 42
2.014806
 50
306.58107
 43
0.1
210
0.0000000000000009
220
-0.9968977508849669
230
0.0787075236587631
  0
ATTRIB
  8
0
 62
     0
 10
25.252919
 20
42.921218
 30
22.315405
 40
0.201481
  1
intersection
  2
TYPE
 70
     1
 50
306.58107
 41
0.024816
 71
     2
210
0.0000000000000009
220
-0.9968977508849669
230
0.0787075236587631
  0
ATTRIB
  8
0
 62
     0
 10
24.983266
 20
42.721094
 30
22.315405
 40
0.201481
  1
Cube
  2
NAME
 70
     1
 50
306.58107
 41
0.024816
 71
     2
210
0.0000000000000009
220
-0.9968977508849669
230
0.0787075236587631
  0
SEQEND
  8
BOOM1
 62
     2
  0
INSERT
  8
BOOM1
 62
     2
 66
     1
  2
CUBE
 10
25.963823
 20
40.71076
 30
22.315405
 41
-0.1
 42
2.538294
 50
66.559717
 43
0.1
210
0.0000000000000009
220
-0.9968977508849669
230
0.0787075236587631
  0
ATTRIB
  8
0
 62
     0
 10
25.963823
 20
40.71076
 30
22.315405
 40
0.253829
  1
intersection
  2
TYPE
 70
     1
 50
66.559717
 41
0.019698
 71
     2
210
0.0000000000000009
220
-0.9968977508849669
230
0.0787075236587631
  0
ATTRIB
  8
0
 62
     0
 10
26.35196
 20
40.542474
 30
22.315405
 40
0.253829
  1
Cube
  2
NAME
 70
     1
 50
66.559717
 41
0.019698
 71
     2
210
0.0000000000000009
220
-0.9968977508849669
230
0.0787075236587631
  0
SEQEND
  8
BOOM1
 62
     2
  0
INSERT
  8
BOOM1
 62
     2
 66
     1
  2
CUBE
 10
24.591044
 20
46.905502
 30
22.315405
 41
-0.1
 42
1.45106
 50
318.787147
 43
0.1
210
0.0000000000000009
220
-0.9968977508849669
230
0.0787075236587631
  0
ATTRIB
  8
0
 62
     0
 10
24.591044
 20
46.905502
 30
22.315405
 40
0.145106
  1
intersection
  2
TYPE
 70
     1
 50
318.787147
 41
0.034458
 71
     2
210
0.0000000000000009
220
-0.9968977508849669
230
0.0787075236587631
  0
ATTRIB
  8
0
 62
     0
 10
24.431703
 20
46.723571
 30
22.315405
 40
0.145106
  1
Cube
  2
NAME
 70
     1
 50
318.787147
 41
0.034458
 71
     2
210
0.0000000000000009
220
-0.9968977508849669
230
0.0787075236587631
  0
SEQEND
  8
BOOM1
 62
     2
  0
INSERT
  8
BOOM1
 62
     2
 66
     1
  2
CUBE
 10
24.56653
 20
48.788485
 30
22.315405
 41
-0.1
 42
1.260081
 50
51.093297
 43
0.1
210
0.0000000000000009
220
-0.9968977508849669
230
0.0787075236587631
  0
ATTRIB
  8
0
 62
     0
 10
24.56653
 20
48.788485
 30
22.315405
 40
0.126008
  1
intersection
  2
TYPE
 70
     1
 50
51.093297
 41
0.03968
 71
     2
210
0.0000000000000009
220
-0.9968977508849669
230
0.0787075236587631
  0
ATTRIB
  8
0
 62
     0
 10
24.729956
 20
48.656585
 30
22.315405
 40
0.126008
  1
Cube
  2
NAME
 70
     1
 50
51.093297
 41
0.03968
 71
     2
210
0.0000000000000009
220
-0.9968977508849669
230
0.0787075236587631
  0
SEQEND
  8
BOOM1
 62
     2
  0
INSERT
  8
BOOM1
 62
     2
 66
     1
  2
CUBE
 10
24.198821
 20
49.85278
 30
22.315405
 41
-0.1
 42
0.694854
 50
298.117821
 43
0.1
210
0.0000000000000009
220
-0.9968977508849669
230
0.0787075236587631
  0
ATTRIB
  8
0
 62
     0
 10
24.198821
 20
49.85278
 30
22.315405
 40
0.069485
  1
intersection
  2
TYPE
 70
     1
 50
298.117821
 41
0.071958
 71
     2
210
0.0000000000000009
220
-0.9968977508849669
230
0.0787075236587631
  0
ATTRIB
  8
0
 62
     0
 10
24.09668
 20
49.798201
 30
22.315405
 40
0.069485
  1
Cube
  2
NAME
 70
     1
 50
298.117821
 41
0.071958
 71
     2
210
0.0000000000000009
220
-0.9968977508849669
230
0.0787075236587631
  0
SEQEND
  8
BOOM1
 62
     2
  0
INSERT
  8
BOOM1
 62
     2
 66
     1
  2
CUBE
 10
17.734838
 20
57.070908
 30
6.586676
 41
0.1
 42
1.436233
 50
270.0
 43
0.1
210
-0.6815854406435592
220
-0.0000000000000007
230
0.7317385373907304
  0
ATTRIB
  8
0
 62
     0
 10
17.734838
 20
57.070908
 30
6.586676
 40
0.143623
  1
intersection
  2
TYPE
 70
     1
 50
270.0
 41
0.069627
210
-0.6815854406435592
220
-0.0000000000000007
230
0.7317385373907302
  0
ATTRIB
  8
0
 62
     0
 10
17.495466
 20
57.070908
 30
6.586676
 40
0.143623
  1
Cube
  2
NAME
 70
     1
 50
270.0
 41
0.069627
210
-0.6815854406435592
220
-0.0000000000000007
230
0.7317385373907302
  0
SEQEND
  8
BOOM1
 62
     2
  0
INSERT
  8
BOOM1
 62
     2
 66
     1
  2
CUBE
 10
17.761137
 20
60.205475
 30
6.586676
 41
0.05
 42
1.360383
 50
245.410222
 43
0.05
210
-0.6815854406435592
220
-0.0000000000000007
230
0.7317385373907304
  0
ATTRIB
  8
0
 62
     0
 10
17.761137
 20
60.205475
 30
6.586676
 40
0.136038
  1
intersection
  2
TYPE
 70
     1
 50
245.410222
 41
0.036754
210
-0.6815854406435592
220
-0.0000000000000007
230
0.7317385373907302
  0
ATTRIB
  8
0
 62
     0
 10
17.554968
 20
60.299822
 30
6.586676
 40
0.136038
  1
Cube
  2
NAME
 70
     1
 50
245.410222
 41
0.036754
210
-0.6815854406435592
220
-0.0000000000000007
230
0.7317385373907302
  0
SEQEND
  8
BOOM1
 62
     2
  0
INSERT
  8
BOOM1
 62
     2
 66
     1
  2
CUBE
 10
17.739879
 20
59.295369
 30
6.586676
 41
0.05
 42
1.366614
 50
105.49863
 43
0.05
210
-0.6815854406435592
220
-0.0000000000000007
230
0.7317385373907304
  0
ATTRIB
  8
0
 62
     0
 10
17.739879
 20
59.295369
 30
6.586676
 40
0.136661
  1
intersection
  2
TYPE
 70
     1
 50
105.49863
 41
0.036587
210
-0.6815854406435592
220
-0.0000000000000007
230
0.7317385373907302
  0
ATTRIB
  8
0
 62
     0
 10
17.959366
 20
59.356232
 30
6.586676
 40
0.136661
  1
Cube
  2
NAME
 70
     1
 50
105.49863
 41
0.036587
210
-0.6815854406435592
220
-0.0000000000000007
230
0.7317385373907302
  0
SEQEND
  8
BOOM1
 62
     2
  0
INSERT
  8
BOOM1
 62
     2
 66
     1
  2
CUBE
 10
17.782079
 20
58.651667
 30
6.586676
 41
0.05
 42
1.387364
 50
258.418803
 43
0.05
210
-0.6815854406435592
220
-0.0000000000000007
230
0.7317385373907304
  0
ATTRIB
  8
0
 62
     0
 10
17.782079
 20
58.651667
 30
6.586676
 40
0.138736
  1
intersection
  2
TYPE
 70
     1
 50
258.418803
 41
0.03604
210
-0.6815854406435592
220
-0.0000000000000007
230
0.7317385373907302
  0
ATTRIB
  8
0
 62
     0
 10
17.555559
 20
58.698087
 30
6.586676
 40
0.138736
  1
Cube
  2
NAME
 70
     1
 50
258.418803
 41
0.03604
210
-0.6815854406435592
220
-0.0000000000000007
230
0.7317385373907302
  0
SEQEND
  8
BOOM1
 62
     2
  0
INSERT
  8
BOOM1
 62
     2
 66
     1
  2
CUBE
 10
17.717865
 20
57.792914
 30
6.586676
 41
0.05
 42
1.537057
 50
112.178568
 43
0.05
210
-0.6815854406435592
220
-0.0000000000000007
230
0.7317385373907304
  0
ATTRIB
  8
0
 62
     0
 10
17.717865
 20
57.792914
 30
6.586676
 40
0.153706
  1
intersection
  2
TYPE
 70
     1
 50
112.178568
 41
0.03253
 51
0.0
210
-0.6815854406435592
220
-0.0000000000000007
230
0.7317385373907302
  0
ATTRIB
  8
0
 62
     0
 10
17.955087
 20
57.889619
 30
6.586676
 40
0.153706
  1
Cube
  2
NAME
 70
     1
 50
112.178568
 41
0.03253
 51
0.0
210
-0.6815854406435592
220
-0.0000000000000007
230
0.7317385373907302
  0
SEQEND
  8
BOOM1
 62
     2
  0
INSERT
  8
BOOM1
 62
     2
 66
     1
  2
CUBE
 10
17.684515
 20
53.610969
 30
6.586676
 41
0.1
 42
1.610663
 50
270.0
 43
0.1
210
-0.6815854406435592
220
-0.0000000000000007
230
0.7317385373907304
  0
ATTRIB
  8
0
 62
     0
 10
17.684515
 20
53.610969
 30
6.586676
 40
0.161066
  1
intersection
  2
TYPE
 70
     1
 50
270.0
 41
0.062086
210
-0.6815854406435592
220
-0.0000000000000007
230
0.7317385373907302
  0
ATTRIB
  8
0
 62
     0
 10
17.416072
 20
53.610969
 30
6.586676
 40
0.161066
  1
Cube
  2
NAME
 70
     1
 50
270.0
 41
0.062086
210
-0.6815854406435592
220
-0.0000000000000007
230
0.7317385373907302
  0
SEQEND
  8
BOOM1
 62
     2
  0
INSERT
  8
BOOM1
 62
     2
 66
     1
  2
CUBE
 10
16.981125
 20
55.347265
 30
6.586676
 41
0.1
 42
1.873362
 50
202.053358
 43
0.1
210
-0.6815854406435592
220
-0.0000000000000007
230
0.7317385373907304
  0
ATTRIB
  8
0
 62
     0
 10
16.981125
 20
55.347265
 30
6.586676
 40
0.187336
  1
intersection
  2
TYPE
 70
     1
 50
202.053358
 41
0.05338
210
-0.6815854406435592
220
-0.0000000000000007
230
0.7317385373907302
  0
ATTRIB
  8
0
 62
     0
 10
16.863893
 20
55.636648
 30
6.586676
 40
0.187336
  1
Cube
  2
NAME
 70
     1
 50
202.053358
 41
0.05338
210
-0.6815854406435592
220
-0.0000000000000007
230
0.7317385373907302
  0
SEQEND
  8
BOOM1
 62
     2
  0
INSERT
  8
BOOM1
 62
     2
 66
     1
  2
CUBE
 10
16.746661
 20
50.72849
 30
6.586676
 41
0.1
 42
3.037584
 50
161.611283
 43
0.1
210
-0.6815854406435592
220
-0.0000000000000007
230
0.7317385373907304
  0
ATTRIB
  8
0
 62
     0
 10
16.746661
 20
50.72849
 30
6.586676
 40
0.303758
  1
intersection
  2
TYPE
 70
     1
 50
161.611283
 41
0.032921
 51
0.0
210
-0.6815854406435592
220
-0.0000000000000007
230
0.7317385373907302
  0
ATTRIB
  8
0
 62
     0
 10
16.906368
 20
51.208903
 30
6.586676
 40
0.303758
  1
Cube
  2
NAME
 70
     1
 50
161.611283
 41
0.032921
 51
0.0
210
-0.6815854406435592
220
-0.0000000000000007
230
0.7317385373907302
  0
SEQEND
  8
BOOM1
 62
     2
  0
INSERT
  8
BOOM1
 62
     2
 66
     1
  2
CUBE
 10
16.695691
 20
52.952765
 30
6.586676
 41
0.05
 42
0.877989
 50
221.438047
 43
0.05
210
-0.6815854406435592
220
-0.0000000000000007
230
0.7317385373907304
  0
ATTRIB
  8
0
 62
     0
 10
16.695691
 20
52.952765
 30
6.586676
 40
0.087799
  1
intersection
  2
TYPE
 70
     1
 50
221.438047
 41
0.056948
210
-0.6815854406435592
220
-0.0000000000000007
230
0.7317385373907302
  0
ATTRIB
  8
0
 62
     0
 10
16.598847
 20
53.062465
 30
6.586676
 40
0.087799
  1
Cube
  2
NAME
 70
     1
 50
221.438047
 41
0.056948
210
-0.6815854406435592
220
-0.0000000000000007
230
0.7317385373907302
  0
SEQEND
  8
BOOM1
 62
     2
  0
INSERT
  8
BOOM1
 62
     2
 66
     1
  2
CUBE
 10
16.64472
 20
52.294561
 30
6.586676
 41
0.05
 42
0.611644
 50
90.0
 43
0.05
210
-0.6815854406435592
220
-0.0000000000000007
230
0.7317385373907304
  0
ATTRIB
  8
0
 62
     0
 10
16.64472
 20
52.294561
 30
6.586676
 40
0.061164
  1
intersection
  2
TYPE
 70
     1
 50
90.0
 41
0.081747
210
-0.6815854406435592
220
-0.0000000000000007
230
0.7317385373907304
  0
ATTRIB
  8
0
 62
     0
 10
16.746661
 20
52.294561
 30
6.586676
 40
0.061164
  1
Cube
  2
NAME
 70
     1
 50
90.0
 41
0.081747
210
-0.6815854406435592
220
-0.0000000000000007
230
0.7317385373907304
  0
SEQEND
  8
BOOM1
 62
     2
  0
INSERT
  8
BOOM1
 62
     2
 66
     1
  2
CUBE
 10
16.440839
 20
51.659054
 30
6.586676
 41
0.05
 42
0.755076
 50
212.6856
 43
0.05
210
-0.6815854406435592
220
-0.0000000000000007
230
0.7317385373907304
  0
ATTRIB
  8
0
 62
     0
 10
16.440839
 20
51.659054
 30
6.586676
 40
0.075508
  1
intersection
  2
TYPE
 70
     1
 50
212.6856
 41
0.066218
210
-0.6815854406435592
220
-0.0000000000000007
230
0.7317385373907302
  0
ATTRIB
  8
0
 62
     0
 10
16.372878
 20
51.764972
 30
6.586676
 40
0.075508
  1
Cube
  2
NAME
 70
     1
 50
212.6856
 41
0.066218
210
-0.6815854406435592
220
-0.0000000000000007
230
0.7317385373907302
  0
SEQEND
  8
BOOM1
 62
     2
  0
INSERT
  8
BOOM1
 62
     2
 66
     1
  2
CUBE
 10
16.410256
 20
51.023547
 30
6.586676
 41
0.05
 42
0.438345
 50
90.0
 43
0.05
210
-0.6815854406435592
220
-0.0000000000000007
230
0.7317385373907304
  0
ATTRIB
  8
0
 62
     0
 10
16.410256
 20
51.023547
 30
6.586676
 40
0.043835
  1
intersection
  2
TYPE
 70
     1
 50
90.0
 41
0.114065
210
-0.6815854406435592
220
-0.0000000000000007
230
0.7317385373907302
  0
ATTRIB
  8
0
 62
     0
 10
16.483314
 20
51.023547
 30
6.586676
 40
0.043835
  1
Cube
  2
NAME
 70
     1
 50
90.0
 41
0.114065
210
-0.6815854406435592
220
-0.0000000000000007
230
0.7317385373907302
  0
SEQEND
  8
BOOM1
 62
     2
  0
INSERT
  8
BOOM1
 62
     2
 66
     1
  2
CUBE
 10
18.488552
 20
55.347265
 30
6.586676
 41
-0.1
 42
1.873362
 50
157.946642
 43
0.1
210
-0.6815854406435593
220
-0.0000000000000007
230
0.7317385373907304
  0
ATTRIB
  8
0
 62
     0
 10
18.488552
 20
55.347265
 30
6.586676
 40
0.187336
  1
intersection
  2
TYPE
 70
     1
 50
157.946642
 41
0.05338
 71
     2
210
-0.6815854406435592
220
-0.0000000000000007
230
0.7317385373907302
  0
ATTRIB
  8
0
 62
     0
 10
18.605784
 20
55.636648
 30
6.586676
 40
0.187336
  1
Cube
  2
NAME
 70
     1
 50
157.946642
 41
0.05338
 71
     2
210
-0.6815854406435592
220
-0.0000000000000007
230
0.7317385373907302
  0
SEQEND
  8
BOOM1
 62
     2
  0
INSERT
  8
BOOM1
 62
     2
 66
     1
  2
CUBE
 10
18.773986
 20
52.952765
 30
6.586676
 41
-0.05
 42
0.877989
 50
138.561953
 43
0.05
210
-0.6815854406435593
220
-0.0000000000000007
230
0.7317385373907304
  0
ATTRIB
  8
0
 62
     0
 10
18.773986
 20
52.952765
 30
6.586676
 40
0.087799
  1
intersection
  2
TYPE
 70
     1
 50
138.561953
 41
0.056948
 71
     2
210
-0.6815854406435592
220
-0.0000000000000007
230
0.7317385373907302
  0
ATTRIB
  8
0
 62
     0
 10
18.87083
 20
53.062465
 30
6.586676
 40
0.087799
  1
Cube
  2
NAME
 70
     1
 50
138.561953
 41
0.056948
 71
     2
210
-0.6815854406435592
220
-0.0000000000000007
230
0.7317385373907302
  0
SEQEND
  8
BOOM1
 62
     2
  0
INSERT
  8
BOOM1
 62
     2
 66
     1
  2
CUBE
 10
18.824956
 20
52.294561
 30
6.586676
 41
-0.05
 42
0.611644
 50
270.0
 43
0.05
210
-0.6815854406435593
220
-0.0000000000000007
230
0.7317385373907304
  0
ATTRIB
  8
0
 62
     0
 10
18.824956
 20
52.294561
 30
6.586676
 40
0.061164
  1
intersection
  2
TYPE
 70
     1
 50
270.0
 41
0.081747
 71
     2
210
-0.6815854406435593
220
-0.0000000000000007
230
0.7317385373907304
  0
ATTRIB
  8
0
 62
     0
 10
18.723016
 20
52.294561
 30
6.586676
 40
0.061164
  1
Cube
  2
NAME
 70
     1
 50
270.0
 41
0.081747
 71
     2
210
-0.6815854406435593
220
-0.0000000000000007
230
0.7317385373907304
  0
SEQEND
  8
BOOM1
 62
     2
  0
INSERT
  8
BOOM1
 62
     2
 66
     1
  2
CUBE
 10
19.028838
 20
51.659054
 30
6.586676
 41
-0.05
 42
0.755076
 50
147.3144
 43
0.05
210
-0.6815854406435593
220
-0.0000000000000007
230
0.7317385373907304
  0
ATTRIB
  8
0
 62
     0
 10
19.028838
 20
51.659054
 30
6.586676
 40
0.075508
  1
intersection
  2
TYPE
 70
     1
 50
147.3144
 41
0.066218
 71
     2
210
-0.6815854406435593
220
-0.0000000000000007
230
0.7317385373907304
  0
ATTRIB
  8
0
 62
     0
 10
19.096798
 20
51.764972
 30
6.586676
 40
0.075508
  1
Cube
  2
NAME
 70
     1
 50
147.3144
 41
0.066218
 71
     2
210
-0.6815854406435593
220
-0.0000000000000007
230
0.7317385373907304
  0
SEQEND
  8
BOOM1
 62
     2
  0
INSERT
  8
BOOM1
 62
     2
 66
     1
  2
CUBE
 10
19.05942
 20
51.023547
 30
6.586676
 41
-0.05
 42
0.438345
 50
270.0
 43
0.05
210
-0.6815854406435593
220
-0.0000000000000007
230
0.7317385373907304
  0
ATTRIB
  8
0
 62
     0
 10
19.05942
 20
51.023547
 30
6.586676
 40
0.043835
  1
intersection
  2
TYPE
 70
     1
 50
270.0
 41
0.114065
 71
     2
210
-0.6815854406435592
220
-0.0000000000000007
230
0.7317385373907302
  0
ATTRIB
  8
0
 62
     0
 10
18.986362
 20
51.023547
 30
6.586676
 40
0.043835
  1
Cube
  2
NAME
 70
     1
 50
270.0
 41
0.114065
 71
     2
210
-0.6815854406435592
220
-0.0000000000000007
230
0.7317385373907302
  0
SEQEND
  8
BOOM1
 62
     2
  0
INSERT
  8
BOOM1
 62
     2
 66
     1
  2
CUBE
 10
18.723016
 20
50.72849
 30
6.586676
 41
-0.1
 42
3.037584
 50
198.388717
 43
0.1
210
-0.6815854406435593
220
-0.0000000000000007
230
0.7317385373907304
  0
ATTRIB
  8
0
 62
     0
 10
18.723016
 20
50.72849
 30
6.586676
 40
0.303758
  1
intersection
  2
TYPE
 70
     1
 50
198.388717
 41
0.032921
 51
0.0
 71
     2
210
-0.6815854406435592
220
-0.0000000000000007
230
0.7317385373907302
  0
ATTRIB
  8
0
 62
     0
 10
18.563308
 20
51.208903
 30
6.586676
 40
0.303758
  1
Cube
  2
NAME
 70
     1
 50
198.388717
 41
0.032921
 51
0.0
 71
     2
210
-0.6815854406435592
220
-0.0000000000000007
230
0.7317385373907302
  0
SEQEND
  8
BOOM1
 62
     2
  0
INSERT
  8
BOOM1
 62
     2
 66
     1
  2
CUBE
 10
-17.684515
 20
52.733557
 30
-10.338108
 41
-0.1
 42
1.610663
 50
90.0
 43
0.1
210
0.6022657151081393
220
0.0000000000000005
230
-0.7982956898325844
  0
ATTRIB
  8
0
 62
     0
 10
-17.684515
 20
52.733557
 30
-10.338108
 40
0.161066
  1
intersection
  2
TYPE
 70
     1
 50
90.0
 41
0.062086
 71
     2
210
0.6022657151081392
220
0.0000000000000005
230
-0.7982956898325844
  0
ATTRIB
  8
0
 62
     0
 10
-17.416072
 20
52.733557
 30
-10.338108
 40
0.161066
  1
Cube
  2
NAME
 70
     1
 50
90.0
 41
0.062086
 71
     2
210
0.6022657151081392
220
0.0000000000000005
230
-0.7982956898325844
  0
SEQEND
  8
BOOM1
 62
     2
  0
INSERT
  8
BOOM1
 62
     2
 66
     1
  2
CUBE
 10
-18.488552
 20
54.469854
 30
-10.338108
 41
0.1
 42
1.873362
 50
202.053358
 43
0.1
210
0.6022657151081392
220
0.0000000000000005
230
-0.7982956898325843
  0
ATTRIB
  8
0
 62
     0
 10
-18.488552
 20
54.469854
 30
-10.338108
 40
0.187336
  1
intersection
  2
TYPE
 70
     1
 50
202.053358
 41
0.05338
210
0.6022657151081392
220
0.0000000000000005
230
-0.7982956898325843
  0
ATTRIB
  8
0
 62
     0
 10
-18.605784
 20
54.759237
 30
-10.338108
 40
0.187336
  1
Cube
  2
NAME
 70
     1
 50
202.053358
 41
0.05338
210
0.6022657151081392
220
0.0000000000000005
230
-0.7982956898325843
  0
SEQEND
  8
BOOM1
 62
     2
  0
INSERT
  8
BOOM1
 62
     2
 66
     1
  2
CUBE
 10
-18.773986
 20
52.075353
 30
-10.338108
 41
0.05
 42
0.877989
 50
221.438047
 43
0.05
210
0.6022657151081392
220
0.0000000000000005
230
-0.7982956898325843
  0
ATTRIB
  8
0
 62
     0
 10
-18.773986
 20
52.075353
 30
-10.338108
 40
0.087799
  1
intersection
  2
TYPE
 70
     1
 50
221.438047
 41
0.056948
210
0.6022657151081392
220
0.0000000000000005
230
-0.7982956898325843
  0
ATTRIB
  8
0
 62
     0
 10
-18.87083
 20
52.185054
 30
-10.338108
 40
0.087799
  1
Cube
  2
NAME
 70
     1
 50
221.438047
 41
0.056948
210
0.6022657151081392
220
0.0000000000000005
230
-0.7982956898325843
  0
SEQEND
  8
BOOM1
 62
     2
  0
INSERT
  8
BOOM1
 62
     2
 66
     1
  2
CUBE
 10
-18.824956
 20
51.41715
 30
-10.338108
 41
0.05
 42
0.611644
 50
90.0
 43
0.05
210
0.6022657151081392
220
0.0000000000000005
230
-0.7982956898325843
  0
ATTRIB
  8
0
 62
     0
 10
-18.824956
 20
51.41715
 30
-10.338108
 40
0.061164
  1
intersection
  2
TYPE
 70
     1
 50
90.0
 41
0.081747
210
0.6022657151081392
220
0.0000000000000005
230
-0.7982956898325843
  0
ATTRIB
  8
0
 62
     0
 10
-18.723016
 20
51.41715
 30
-10.338108
 40
0.061164
  1
Cube
  2
NAME
 70
     1
 50
90.0
 41
0.081747
210
0.6022657151081392
220
0.0000000000000005
230
-0.7982956898325843
  0
SEQEND
  8
BOOM1
 62
     2
  0
INSERT
  8
BOOM1
 62
     2
 66
     1
  2
CUBE
 10
-18.723016
 20
49.851078
 30
-10.338108
 41
0.1
 42
3.037584
 50
161.611283
 43
0.1
210
0.6022657151081392
220
0.0000000000000005
230
-0.7982956898325843
  0
ATTRIB
  8
0
 62
     0
 10
-18.723016
 20
49.851078
 30
-10.338108
 40
0.303758
  1
intersection
  2
TYPE
 70
     1
 50
161.611283
 41
0.032921
 51
0.0
210
0.6022657151081392
220
0.0000000000000005
230
-0.7982956898325843
  0
ATTRIB
  8
0
 62
     0
 10
-18.563308
 20
50.331492
 30
-10.338108
 40
0.303758
  1
Cube
  2
NAME
 70
     1
 50
161.611283
 41
0.032921
 51
0.0
210
0.6022657151081392
220
0.0000000000000005
230
-0.7982956898325843
  0
SEQEND
  8
BOOM1
 62
     2
  0
INSERT
  8
BOOM1
 62
     2
 66
     1
  2
CUBE
 10
-17.717865
 20
56.915502
 30
-10.338108
 41
-0.05
 42
1.537057
 50
247.821432
 43
0.05
210
0.6022657151081393
220
0.0000000000000005
230
-0.7982956898325844
  0
ATTRIB
  8
0
 62
     0
 10
-17.717865
 20
56.915502
 30
-10.338108
 40
0.153706
  1
intersection
  2
TYPE
 70
     1
 50
247.821432
 41
0.03253
 51
0.0
 71
     2
210
0.6022657151081392
220
0.0000000000000005
230
-0.7982956898325844
  0
ATTRIB
  8
0
 62
     0
 10
-17.955087
 20
57.012208
 30
-10.338108
 40
0.153706
  1
Cube
  2
NAME
 70
     1
 50
247.821432
 41
0.03253
 51
0.0
 71
     2
210
0.6022657151081392
220
0.0000000000000005
230
-0.7982956898325844
  0
SEQEND
  8
BOOM1
 62
     2
  0
INSERT
  8
BOOM1
 62
     2
 66
     1
  2
CUBE
 10
-17.782079
 20
57.774255
 30
-10.338108
 41
-0.05
 42
1.387364
 50
101.581197
 43
0.05
210
0.6022657151081393
220
0.0000000000000005
230
-0.7982956898325844
  0
ATTRIB
  8
0
 62
     0
 10
-17.782079
 20
57.774255
 30
-10.338108
 40
0.138736
  1
intersection
  2
TYPE
 70
     1
 50
101.581197
 41
0.03604
 71
     2
210
0.6022657151081392
220
0.0000000000000005
230
-0.7982956898325844
  0
ATTRIB
  8
0
 62
     0
 10
-17.555559
 20
57.820676
 30
-10.338108
 40
0.138736
  1
Cube
  2
NAME
 70
     1
 50
101.581197
 41
0.03604
 71
     2
210
0.6022657151081392
220
0.0000000000000005
230
-0.7982956898325844
  0
SEQEND
  8
BOOM1
 62
     2
  0
INSERT
  8
BOOM1
 62
     2
 66
     1
  2
CUBE
 10
-17.739879
 20
58.417958
 30
-10.338108
 41
-0.05
 42
1.366614
 50
254.50137
 43
0.05
210
0.6022657151081393
220
0.0000000000000005
230
-0.7982956898325844
  0
ATTRIB
  8
0
 62
     0
 10
-17.739879
 20
58.417958
 30
-10.338108
 40
0.136661
  1
intersection
  2
TYPE
 70
     1
 50
254.50137
 41
0.036587
 71
     2
210
0.6022657151081392
220
0.0000000000000005
230
-0.7982956898325844
  0
ATTRIB
  8
0
 62
     0
 10
-17.959366
 20
58.478821
 30
-10.338108
 40
0.136661
  1
Cube
  2
NAME
 70
     1
 50
254.50137
 41
0.036587
 71
     2
210
0.6022657151081392
220
0.0000000000000005
230
-0.7982956898325844
  0
SEQEND
  8
BOOM1
 62
     2
  0
INSERT
  8
BOOM1
 62
     2
 66
     1
  2
CUBE
 10
-17.761137
 20
59.328064
 30
-10.338108
 41
-0.05
 42
1.360383
 50
114.589778
 43
0.05
210
0.6022657151081393
220
0.0000000000000005
230
-0.7982956898325844
  0
ATTRIB
  8
0
 62
     0
 10
-17.761137
 20
59.328064
 30
-10.338108
 40
0.136038
  1
intersection
  2
TYPE
 70
     1
 50
114.589778
 41
0.036754
 71
     2
210
0.6022657151081392
220
0.0000000000000005
230
-0.7982956898325844
  0
ATTRIB
  8
0
 62
     0
 10
-17.554968
 20
59.42241
 30
-10.338108
 40
0.136038
  1
Cube
  2
NAME
 70
     1
 50
114.589778
 41
0.036754
 71
     2
210
0.6022657151081392
220
0.0000000000000005
230
-0.7982956898325844
  0
SEQEND
  8
BOOM1
 62
     2
  0
INSERT
  8
BOOM1
 62
     2
 66
     1
  2
CUBE
 10
-17.734838
 20
56.193497
 30
-10.338108
 41
-0.1
 42
1.436233
 50
90.0
 43
0.1
210
0.6022657151081393
220
0.0000000000000005
230
-0.7982956898325844
  0
ATTRIB
  8
0
 62
     0
 10
-17.734838
 20
56.193497
 30
-10.338108
 40
0.143623
  1
intersection
  2
TYPE
 70
     1
 50
90.0
 41
0.069627
 71
     2
210
0.6022657151081392
220
0.0000000000000005
230
-0.7982956898325844
  0
ATTRIB
  8
0
 62
     0
 10
-17.495466
 20
56.193497
 30
-10.338108
 40
0.143623
  1
Cube
  2
NAME
 70
     1
 50
90.0
 41
0.069627
 71
     2
210
0.6022657151081392
220
0.0000000000000005
230
-0.7982956898325844
  0
SEQEND
  8
BOOM1
 62
     2
  0
INSERT
  8
BOOM1
 62
     2
 66
     1
  2
CUBE
 10
-16.981125
 20
54.469854
 30
-10.338108
 41
-0.1
 42
1.873362
 50
157.946642
 43
0.1
210
0.6022657151081393
220
0.0000000000000005
230
-0.7982956898325844
  0
ATTRIB
  8
0
 62
     0
 10
-16.981125
 20
54.469854
 30
-10.338108
 40
0.187336
  1
intersection
  2
TYPE
 70
     1
 50
157.946642
 41
0.05338
 71
     2
210
0.6022657151081392
220
0.0000000000000005
230
-0.7982956898325844
  0
ATTRIB
  8
0
 62
     0
 10
-16.863893
 20
54.759237
 30
-10.338108
 40
0.187336
  1
Cube
  2
NAME
 70
     1
 50
157.946642
 41
0.05338
 71
     2
210
0.6022657151081392
220
0.0000000000000005
230
-0.7982956898325844
  0
SEQEND
  8
BOOM1
 62
     2
  0
INSERT
  8
BOOM1
 62
     2
 66
     1
  2
CUBE
 10
-16.746661
 20
49.851078
 30
-10.338108
 41
-0.1
 42
3.037584
 50
198.388717
 43
0.1
210
0.6022657151081393
220
0.0000000000000005
230
-0.7982956898325844
  0
ATTRIB
  8
0
 62
     0
 10
-16.746661
 20
49.851078
 30
-10.338108
 40
0.303758
  1
intersection
  2
TYPE
 70
     1
 50
198.388717
 41
0.032921
 51
0.0
 71
     2
210
0.6022657151081392
220
0.0000000000000005
230
-0.7982956898325844
  0
ATTRIB
  8
0
 62
     0
 10
-16.906368
 20
50.331492
 30
-10.338108
 40
0.303758
  1
Cube
  2
NAME
 70
     1
 50
198.388717
 41
0.032921
 51
0.0
 71
     2
210
0.6022657151081392
220
0.0000000000000005
230
-0.7982956898325844
  0
SEQEND
  8
BOOM1
 62
     2
  0
INSERT
  8
BOOM1
 62
     2
 66
     1
  2
CUBE
 10
-16.695691
 20
52.075353
 30
-10.338108
 41
-0.05
 42
0.877989
 50
138.561953
 43
0.05
210
0.6022657151081393
220
0.0000000000000005
230
-0.7982956898325844
  0
ATTRIB
  8
0
 62
     0
 10
-16.695691
 20
52.075353
 30
-10.338108
 40
0.087799
  1
intersection
  2
TYPE
 70
     1
 50
138.561953
 41
0.056948
 71
     2
210
0.6022657151081392
220
0.0000000000000005
230
-0.7982956898325844
  0
ATTRIB
  8
0
 62
     0
 10
-16.598847
 20
52.185054
 30
-10.338108
 40
0.087799
  1
Cube
  2
NAME
 70
     1
 50
138.561953
 41
0.056948
 71
     2
210
0.6022657151081392
220
0.0000000000000005
230
-0.7982956898325844
  0
SEQEND
  8
BOOM1
 62
     2
  0
INSERT
  8
BOOM1
 62
     2
 66
     1
  2
CUBE
 10
-16.64472
 20
51.41715
 30
-10.338108
 41
-0.05
 42
0.611644
 50
270.0
 43
0.05
210
0.6022657151081393
220
0.0000000000000005
230
-0.7982956898325844
  0
ATTRIB
  8
0
 62
     0
 10
-16.64472
 20
51.41715
 30
-10.338108
 40
0.061164
  1
intersection
  2
TYPE
 70
     1
 50
270.0
 41
0.081747
 71
     2
210
0.6022657151081393
220
0.0000000000000005
230
-0.7982956898325844
  0
ATTRIB
  8
0
 62
     0
 10
-16.746661
 20
51.41715
 30
-10.338108
 40
0.061164
  1
Cube
  2
NAME
 70
     1
 50
270.0
 41
0.081747
 71
     2
210
0.6022657151081393
220
0.0000000000000005
230
-0.7982956898325844
  0
SEQEND
  8
BOOM1
 62
     2
  0
INSERT
  8
BOOM1
 62
     2
 66
     1
  2
CUBE
 10
-16.440839
 20
50.781642
 30
-10.338108
 41
-0.05
 42
0.755076
 50
147.3144
 43
0.05
210
0.6022657151081393
220
0.0000000000000005
230
-0.7982956898325844
  0
ATTRIB
  8
0
 62
     0
 10
-16.440839
 20
50.781642
 30
-10.338108
 40
0.075508
  1
intersection
  2
TYPE
 70
     1
 50
147.3144
 41
0.066218
 71
     2
210
0.6022657151081393
220
0.0000000000000005
230
-0.7982956898325844
  0
ATTRIB
  8
0
 62
     0
 10
-16.372878
 20
50.88756
 30
-10.338108
 40
0.075508
  1
Cube
  2
NAME
 70
     1
 50
147.3144
 41
0.066218
 71
     2
210
0.6022657151081393
220
0.0000000000000005
230
-0.7982956898325844
  0
SEQEND
  8
BOOM1
 62
     2
  0
INSERT
  8
BOOM1
 62
     2
 66
     1
  2
CUBE
 10
-16.410256
 20
50.146135
 30
-10.338108
 41
-0.05
 42
0.438345
 50
270.0
 43
0.05
210
0.6022657151081393
220
0.0000000000000005
230
-0.7982956898325844
  0
ATTRIB
  8
0
 62
     0
 10
-16.410256
 20
50.146135
 30
-10.338108
 40
0.043835
  1
intersection
  2
TYPE
 70
     1
 50
270.0
 41
0.114065
 71
     2
210
0.6022657151081392
220
0.0000000000000005
230
-0.7982956898325844
  0
ATTRIB
  8
0
 62
     0
 10
-16.483314
 20
50.146135
 30
-10.338108
 40
0.043835
  1
Cube
  2
NAME
 70
     1
 50
270.0
 41
0.114065
 71
     2
210
0.6022657151081392
220
0.0000000000000005
230
-0.7982956898325844
  0
SEQEND
  8
BOOM1
 62
     2
  0
INSERT
  8
BOOM1
 62
     2
 66
     1
  2
CUBE
 10
-19.028838
 20
50.781642
 30
-10.338108
 41
0.05
 42
0.755076
 50
212.6856
 43
0.05
210
0.6022657151081392
220
0.0000000000000005
230
-0.7982956898325843
  0
ATTRIB
  8
0
 62
     0
 10
-19.028838
 20
50.781642
 30
-10.338108
 40
0.075508
  1
intersection
  2
TYPE
 70
     1
 50
212.6856
 41
0.066218
210
0.6022657151081392
220
0.0000000000000005
230
-0.7982956898325843
  0
ATTRIB
  8
0
 62
     0
 10
-19.096798
 20
50.88756
 30
-10.338108
 40
0.075508
  1
Cube
  2
NAME
 70
     1
 50
212.6856
 41
0.066218
210
0.6022657151081392
220
0.0000000000000005
230
-0.7982956898325843
  0
SEQEND
  8
BOOM1
 62
     2
  0
INSERT
  8
BOOM1
 62
     2
 66
     1
  2
CUBE
 10
-19.05942
 20
50.146135
 30
-10.338108
 41
0.05
 42
0.438345
 50
90.0
 43
0.05
210
0.6022657151081392
220
0.0000000000000005
230
-0.7982956898325843
  0
ATTRIB
  8
0
 62
     0
 10
-19.05942
 20
50.146135
 30
-10.338108
 40
0.043835
  1
intersection
  2
TYPE
 70
     1
 50
90.0
 41
0.114065
210
0.6022657151081392
220
0.0000000000000005
230
-0.7982956898325843
  0
ATTRIB
  8
0
 62
     0
 10
-18.986362
 20
50.146135
 30
-10.338108
 40
0.043835
  1
Cube
  2
NAME
 70
     1
 50
90.0
 41
0.114065
210
0.6022657151081392
220
0.0000000000000005
230
-0.7982956898325843
  0
SEQEND
  8
BOOM1
 62
     2
  0
INSERT
  8
BOOM1
 62
   174
 66
     1
  2
DISK_Z
 10
30.762736
 20
-17.73799
 30
37.423659
 41
1.129823
 42
0.564912
 50
180.0
 43
0.564912
  0
ATTRIB
  8
0
 62
     0
 10
30.762736
 20
-37.423659
 30
-17.73799
 40
0.056491
  1
Disk_Z
  2
NAME
 70
     1
 50
180.0
 41
2.0
  0
ATTRIB
  8
0
 62
     0
 10
30.762736
 20
-37.329507
 30
-17.73799
 40
0.056491
  1
intersection
  2
TYPE
 70
     1
 50
180.0
 41
2.0
  0
SEQEND
  8
BOOM1
 62
   174
  0
INSERT
  8
BOOM1
 62
     2
 66
     1
  2
CONE_Y
 10
-30.762736
 20
38.553482
 30
-17.73799
 41
1.129823
 42
0.564912
 43
0.564912
210
-0.0000000000000009
220
1.0
230
0.0
  0
ATTRIB
  8
0
 62
     0
 10
30.762736
 20
-17.73799
 30
38.553482
 40
0.112982
  1
Cone_Y
  2
NAME
 70
     1
 50
180.0
 41
1.0
  0
ATTRIB
  8
0
 62
     0
 10
30.762736
 20
-17.549686
 30
38.553482
 40
0.112982
  1
intersection
  2
TYPE
 70
     1
 50
180.0
 41
1.0
  0
SEQEND
  8
BOOM1
 62
     2
  0
INSERT
  8
BOOM1
 62
     2
 66
     1
  2
DISK_Y
 10
-30.762736
 20
38.570395
 30
-17.73799
 41
0.451929
 42
1.146735
 43
0.225965
210
-0.0000000000000009
220
1.0
230
0.0
  0
ATTRIB
  8
0
 62
     0
 10
-30.762736
 20
38.570395
 30
-17.73799
 40
0.114674
  1
Disk_Y
  2
NAME
 70
     1
 41
0.394101
210
-0.0000000000000009
220
1.0
230
0.0
  0
ATTRIB
  8
0
 62
     0
 10
-30.762736
 20
38.379272
 30
-17.73799
 40
0.114674
  1
intersection
  2
TYPE
 70
     1
 41
0.394101
210
-0.0000000000000009
220
1.0
230
0.0
  0
SEQEND
  8
BOOM1
 62
     2
  0
POINT
  8
CRANE1
 62
     2
 10
31.279039
 20
-18.440412
 30
34.500753
  0
POINT
  8
CRANE1
 62
     2
 10
31.369301
 20
-17.870519
 30
34.500753
  0
POINT
  8
CRANE1
 62
     2
 10
31.339103
 20
-17.294312
 30
34.500753
  0
POINT
  8
CRANE1
 62
     2
 10
31.189765
 20
-16.736976
 30
34.500753
  0
POINT
  8
CRANE1
 62
     2
 10
30.927814
 20
-16.222868
 30
34.500753
  0
POINT
  8
CRANE1
 62
     2
 10
30.564698
 20
-15.774457
 30
34.500753
  0
POINT
  8
CRANE1
 62
     2
 10
30.116287
 20
-15.411341
 30
34.500753
  0
POINT
  8
CRANE1
 62
     2
 10
29.602179
 20
-15.149389
 30
34.500753
  0
POINT
  8
CRANE1
 62
     2
 10
29.044843
 20
-15.000052
 30
34.500753
  0
POINT
  8
CRANE1
 62
     2
 10
28.468636
 20
-14.969854
 30
34.500753
  0
POINT
  8
CRANE1
 62
     2
 10
27.898743
 20
-15.060116
 30
34.500753
  0
POINT
  8
CRANE1
 62
     2
 10
27.36007
 20
-15.266893
 30
34.500753
  0
POINT
  8
CRANE1
 62
     2
 10
26.876159
 20
-15.581149
 30
34.500753
  0
POINT
  8
CRANE1
 62
     2
 10
26.468161
 20
-15.989147
 30
34.500753
  0
POINT
  8
CRANE1
 62
     2
 10
26.153905
 20
-16.473058
 30
34.500753
  0
POINT
  8
CRANE1
 62
     2
 10
25.947128
 20
-17.011731
 30
34.500753
  0
POINT
  8
CRANE1
 62
     2
 10
25.856866
 20
-17.581624
 30
34.500753
  0
POINT
  8
CRANE1
 62
     2
 10
25.887064
 20
-18.157831
 30
34.500753
  0
POINT
  8
CRANE1
 62
     2
 10
26.036401
 20
-18.715167
 30
34.500753
  0
POINT
  8
CRANE1
 62
     2
 10
26.298353
 20
-19.229275
 30
34.500753
  0
POINT
  8
CRANE1
 62
     2
 10
26.661469
 20
-19.677686
 30
34.500753
  0
POINT
  8
CRANE1
 62
     2
 10
27.10988
 20
-20.040802
 30
34.500753
  0
POINT
  8
CRANE1
 62
     2
 10
27.623988
 20
-20.302753
 30
34.500753
  0
POINT
  8
CRANE1
 62
     2
 10
28.181324
 20
-20.452091
 30
34.500753
  0
POINT
  8
CRANE1
 62
     2
 10
28.757531
 20
-20.482289
 30
34.500753
  0
POINT
  8
CRANE1
 62
     2
 10
29.327424
 20
-20.392027
 30
34.500753
  0
POINT
  8
CRANE1
 62
     2
 10
29.866097
 20
-20.185249
 30
34.500753
  0
POINT
  8
CRANE1
 62
     2
 10
30.350008
 20
-19.870994
 30
34.500753
  0
POINT
  8
CRANE1
 62
     2
 10
30.758006
 20
-19.462996
 30
34.500753
  0
POINT
  8
CRANE1
 62
     2
 10
31.072261
 20
-18.979085
 30
34.500753
  0
INSERT
  8
CRANE1
 62
     2
 66
     1
  2
DISK_Y
 10
27.913009
 20
-20.338785
 30
34.500753
 41
0.04
 42
0.288499
 50
255.0
 43
0.04
  0
ATTRIB
  8
0
 62
     0
 10
27.913009
 20
-20.338785
 30
34.500753
 40
0.02885
  1
Disk_Y
  2
NAME
 70
     1
 50
255.0
 41
0.138649
  0
ATTRIB
  8
0
 62
     0
 10
27.866564
 20
-20.32634
 30
34.500753
 40
0.02885
  1
intersection
  2
TYPE
 70
     1
 50
255.0
 41
0.138649
  0
SEQEND
  8
CRANE1
 62
     2
  0
INSERT
  8
CRANE1
 62
     2
 66
     1
  2
DISK_Y
 10
28.471521
 20
-20.427245
 30
34.500753
 41
0.04
 42
0.288499
 50
267.0
 43
0.04
  0
ATTRIB
  8
0
 62
     0
 10
28.471521
 20
-20.427245
 30
34.500753
 40
0.02885
  1
Disk_Y
  2
NAME
 70
     1
 50
267.0
 41
0.138649
  0
ATTRIB
  8
0
 62
     0
 10
28.423504
 20
-20.424728
 30
34.500753
 40
0.02885
  1
intersection
  2
TYPE
 70
     1
 50
267.0
 41
0.138649
  0
SEQEND
  8
CRANE1
 62
     2
  0
INSERT
  8
CRANE1
 62
     2
 66
     1
  2
DISK_Y
 10
29.03622
 20
-20.39765
 30
34.500753
 41
0.04
 42
0.288499
 50
279.0
 43
0.04
  0
ATTRIB
  8
0
 62
     0
 10
29.03622
 20
-20.39765
 30
34.500753
 40
0.02885
  1
Disk_Y
  2
NAME
 70
     1
 50
279.0
 41
0.138649
  0
ATTRIB
  8
0
 62
     0
 10
28.988729
 20
-20.405172
 30
34.500753
 40
0.02885
  1
intersection
  2
TYPE
 70
     1
 50
279.0
 41
0.138649
  0
SEQEND
  8
CRANE1
 62
     2
  0
INSERT
  8
CRANE1
 62
     2
 66
     1
  2
DISK_Y
 10
29.582426
 20
-20.251295
 30
34.500753
 41
0.04
 42
0.288499
 50
291.0
 43
0.04
  0
ATTRIB
  8
0
 62
     0
 10
29.582426
 20
-20.251295
 30
34.500753
 40
0.02885
  1
Disk_Y
  2
NAME
 70
     1
 50
291.0
 41
0.138649
  0
ATTRIB
  8
0
 62
     0
 10
29.537536
 20
-20.268526
 30
34.500753
 40
0.02885
  1
intersection
  2
TYPE
 70
     1
 50
291.0
 41
0.138649
  0
SEQEND
  8
CRANE1
 62
     2
  0
INSERT
  8
CRANE1
 62
     2
 66
     1
  2
DISK_Y
 10
30.086267
 20
-19.994575
 30
34.500753
 41
0.04
 42
0.288499
 50
303.0
 43
0.04
  0
ATTRIB
  8
0
 62
     0
 10
30.086267
 20
-19.994575
 30
34.500753
 40
0.02885
  1
Disk_Y
  2
NAME
 70
     1
 50
303.0
 41
0.138649
  0
ATTRIB
  8
0
 62
     0
 10
30.045941
 20
-20.020763
 30
34.500753
 40
0.02885
  1
intersection
  2
TYPE
 70
     1
 50
303.0
 41
0.138649
  0
SEQEND
  8
CRANE1
 62
     2
  0
INSERT
  8
CRANE1
 62
     2
 66
     1
  2
DISK_Y
 10
30.525723
 20
-19.638711
 30
34.500753
 41
0.04
 42
0.288499
 50
315.0
 43
0.04
  0
ATTRIB
  8
0
 62
     0
 10
30.525723
 20
-19.638711
 30
34.500753
 40
0.02885
  1
Disk_Y
  2
NAME
 70
     1
 50
315.0
 41
0.138649
  0
ATTRIB
  8
0
 62
     0
 10
30.491723
 20
-19.672711
 30
34.500753
 40
0.02885
  1
intersection
  2
TYPE
 70
     1
 50
315.0
 41
0.138649
  0
SEQEND
  8
CRANE1
 62
     2
  0
INSERT
  8
CRANE1
 62
     2
 66
     1
  2
DISK_Y
 10
30.881587
 20
-19.199255
 30
34.500753
 41
0.04
 42
0.288499
 50
327.0
 43
0.04
  0
ATTRIB
  8
0
 62
     0
 10
30.881587
 20
-19.199255
 30
34.500753
 40
0.02885
  1
Disk_Y
  2
NAME
 70
     1
 50
327.0
 41
0.138649
  0
ATTRIB
  8
0
 62
     0
 10
30.855399
 20
-19.239581
 30
34.500753
 40
0.02885
  1
intersection
  2
TYPE
 70
     1
 50
327.0
 41
0.138649
  0
SEQEND
  8
CRANE1
 62
     2
  0
INSERT
  8
CRANE1
 62
     2
 66
     1
  2
DISK_Y
 10
31.138307
 20
-18.695414
 30
34.500753
 41
0.04
 42
0.288499
 50
339.0
 43
0.04
  0
ATTRIB
  8
0
 62
     0
 10
31.138307
 20
-18.695414
 30
34.500753
 40
0.02885
  1
Disk_Y
  2
NAME
 70
     1
 50
339.0
 41
0.138649
  0
ATTRIB
  8
0
 62
     0
 10
31.121075
 20
-18.740303
 30
34.500753
 40
0.02885
  1
intersection
  2
TYPE
 70
     1
 50
339.0
 41
0.138649
  0
SEQEND
  8
CRANE1
 62
     2
  0
INSERT
  8
CRANE1
 62
     2
 66
     1
  2
DISK_Y
 10
31.284662
 20
-18.149208
 30
34.500753
 41
0.04
 42
0.288499
 50
351.0
 43
0.04
  0
ATTRIB
  8
0
 62
     0
 10
31.284662
 20
-18.149208
 30
34.500753
 40
0.02885
  1
Disk_Y
  2
NAME
 70
     1
 50
351.0
 41
0.138649
  0
ATTRIB
  8
0
 62
     0
 10
31.27714
 20
-18.196699
 30
34.500753
 40
0.02885
  1
intersection
  2
TYPE
 70
     1
 50
351.0
 41
0.138649
  0
SEQEND
  8
CRANE1
 62
     2
  0
INSERT
  8
CRANE1
 62
     2
 66
     1
  2
DISK_Y
 10
31.314257
 20
-17.584509
 30
34.500753
 41
0.04
 42
0.288499
 50
3.0
 43
0.04
  0
ATTRIB
  8
0
 62
     0
 10
31.314257
 20
-17.584509
 30
34.500753
 40
0.02885
  1
Disk_Y
  2
NAME
 70
     1
 50
3.0
 41
0.138649
  0
ATTRIB
  8
0
 62
     0
 10
31.316773
 20
-17.632526
 30
34.500753
 40
0.02885
  1
intersection
  2
TYPE
 70
     1
 50
3.0
 41
0.138649
  0
SEQEND
  8
CRANE1
 62
     2
  0
INSERT
  8
CRANE1
 62
     2
 66
     1
  2
DISK_Y
 10
31.225797
 20
-17.025997
 30
34.500753
 41
0.04
 42
0.288499
 50
15.0
 43
0.04
  0
ATTRIB
  8
0
 62
     0
 10
31.225797
 20
-17.025997
 30
34.500753
 40
0.02885
  1
Disk_Y
  2
NAME
 70
     1
 50
15.0
 41
0.138649
  0
ATTRIB
  8
0
 62
     0
 10
31.238242
 20
-17.072442
 30
34.500753
 40
0.02885
  1
intersection
  2
TYPE
 70
     1
 50
15.0
 41
0.138649
  0
SEQEND
  8
CRANE1
 62
     2
  0
INSERT
  8
CRANE1
 62
     2
 66
     1
  2
DISK_Y
 10
31.02315
 20
-16.498081
 30
34.500753
 41
0.04
 42
0.288499
 50
27.0
 43
0.04
  0
ATTRIB
  8
0
 62
     0
 10
31.02315
 20
-16.498081
 30
34.500753
 40
0.02885
  1
Disk_Y
  2
NAME
 70
     1
 50
27.0
 41
0.138649
  0
ATTRIB
  8
0
 62
     0
 10
31.044979
 20
-16.540924
 30
34.500753
 40
0.02885
  1
intersection
  2
TYPE
 70
     1
 50
27.0
 41
0.138649
  0
SEQEND
  8
CRANE1
 62
     2
  0
INSERT
  8
CRANE1
 62
     2
 66
     1
  2
DISK_Y
 10
30.71517
 20
-16.023835
 30
34.500753
 41
0.04
 42
0.288499
 50
39.0
 43
0.04
  0
ATTRIB
  8
0
 62
     0
 10
30.71517
 20
-16.023835
 30
34.500753
 40
0.02885
  1
Disk_Y
  2
NAME
 70
     1
 50
39.0
 41
0.138649
  0
ATTRIB
  8
0
 62
     0
 10
30.74543
 20
-16.061203
 30
34.500753
 40
0.02885
  1
intersection
  2
TYPE
 70
     1
 50
39.0
 41
0.138649
  0
SEQEND
  8
CRANE1
 62
     2
  0
INSERT
  8
CRANE1
 62
     2
 66
     1
  2
DISK_Y
 10
30.31532
 20
-15.623985
 30
34.500753
 41
0.04
 42
0.288499
 50
51.0
 43
0.04
  0
ATTRIB
  8
0
 62
     0
 10
30.31532
 20
-15.623985
 30
34.500753
 40
0.02885
  1
Disk_Y
  2
NAME
 70
     1
 50
51.0
 41
0.138649
  0
ATTRIB
  8
0
 62
     0
 10
30.352687
 20
-15.654244
 30
34.500753
 40
0.02885
  1
intersection
  2
TYPE
 70
     1
 50
51.0
 41
0.138649
  0
SEQEND
  8
CRANE1
 62
     2
  0
INSERT
  8
CRANE1
 62
     2
 66
     1
  2
DISK_Y
 10
29.841073
 20
-15.316005
 30
34.500753
 41
0.04
 42
0.288499
 50
63.0
 43
0.04
  0
ATTRIB
  8
0
 62
     0
 10
29.841073
 20
-15.316005
 30
34.500753
 40
0.02885
  1
Disk_Y
  2
NAME
 70
     1
 50
63.0
 41
0.138649
  0
ATTRIB
  8
0
 62
     0
 10
29.883916
 20
-15.337835
 30
34.500753
 40
0.02885
  1
intersection
  2
TYPE
 70
     1
 50
63.0
 41
0.138649
  0
SEQEND
  8
CRANE1
 62
     2
  0
INSERT
  8
CRANE1
 62
     2
 66
     1
  2
DISK_Y
 10
29.313158
 20
-15.113358
 30
34.500753
 41
0.04
 42
0.288499
 50
75.0
 43
0.04
  0
ATTRIB
  8
0
 62
     0
 10
29.313158
 20
-15.113358
 30
34.500753
 40
0.02885
  1
Disk_Y
  2
NAME
 70
     1
 50
75.0
 41
0.138649
  0
ATTRIB
  8
0
 62
     0
 10
29.359603
 20
-15.125802
 30
34.500753
 40
0.02885
  1
intersection
  2
TYPE
 70
     1
 50
75.0
 41
0.138649
  0
SEQEND
  8
CRANE1
 62
     2
  0
INSERT
  8
CRANE1
 62
     2
 66
     1
  2
DISK_Y
 10
28.754646
 20
-15.024898
 30
34.500753
 41
0.04
 42
0.288499
 50
87.0
 43
0.04
  0
ATTRIB
  8
0
 62
     0
 10
28.754646
 20
-15.024898
 30
34.500753
 40
0.02885
  1
Disk_Y
  2
NAME
 70
     1
 50
87.0
 41
0.138649
  0
ATTRIB
  8
0
 62
     0
 10
28.802663
 20
-15.027414
 30
34.500753
 40
0.02885
  1
intersection
  2
TYPE
 70
     1
 50
87.0
 41
0.138649
  0
SEQEND
  8
CRANE1
 62
     2
  0
INSERT
  8
CRANE1
 62
     2
 66
     1
  2
DISK_Y
 10
28.189947
 20
-15.054493
 30
34.500753
 41
0.04
 42
0.288499
 50
99.0
 43
0.04
  0
ATTRIB
  8
0
 62
     0
 10
28.189947
 20
-15.054493
 30
34.500753
 40
0.02885
  1
Disk_Y
  2
NAME
 70
     1
 50
99.0
 41
0.138649
  0
ATTRIB
  8
0
 62
     0
 10
28.237438
 20
-15.046971
 30
34.500753
 40
0.02885
  1
intersection
  2
TYPE
 70
     1
 50
99.0
 41
0.138649
  0
SEQEND
  8
CRANE1
 62
     2
  0
INSERT
  8
CRANE1
 62
     2
 66
     1
  2
DISK_Y
 10
27.643741
 20
-15.200848
 30
34.500753
 41
0.04
 42
0.288499
 50
111.0
 43
0.04
  0
ATTRIB
  8
0
 62
     0
 10
27.643741
 20
-15.200848
 30
34.500753
 40
0.02885
  1
Disk_Y
  2
NAME
 70
     1
 50
111.0
 41
0.138649
  0
ATTRIB
  8
0
 62
     0
 10
27.68863
 20
-15.183617
 30
34.500753
 40
0.02885
  1
intersection
  2
TYPE
 70
     1
 50
111.0
 41
0.138649
  0
SEQEND
  8
CRANE1
 62
     2
  0
INSERT
  8
CRANE1
 62
     2
 66
     1
  2
DISK_Y
 10
27.1399
 20
-15.457568
 30
34.500753
 41
0.04
 42
0.288499
 50
123.0
 43
0.04
  0
ATTRIB
  8
0
 62
     0
 10
27.1399
 20
-15.457568
 30
34.500753
 40
0.02885
  1
Disk_Y
  2
NAME
 70
     1
 50
123.0
 41
0.138649
  0
ATTRIB
  8
0
 62
     0
 10
27.180226
 20
-15.43138
 30
34.500753
 40
0.02885
  1
intersection
  2
TYPE
 70
     1
 50
123.0
 41
0.138649
  0
SEQEND
  8
CRANE1
 62
     2
  0
INSERT
  8
CRANE1
 62
     2
 66
     1
  2
DISK_Y
 10
26.700444
 20
-15.813432
 30
34.500753
 41
0.04
 42
0.288499
 50
135.0
 43
0.04
  0
ATTRIB
  8
0
 62
     0
 10
26.700444
 20
-15.813432
 30
34.500753
 40
0.02885
  1
Disk_Y
  2
NAME
 70
     1
 50
135.0
 41
0.138649
  0
ATTRIB
  8
0
 62
     0
 10
26.734444
 20
-15.779432
 30
34.500753
 40
0.02885
  1
intersection
  2
TYPE
 70
     1
 50
135.0
 41
0.138649
  0
SEQEND
  8
CRANE1
 62
     2
  0
INSERT
  8
CRANE1
 62
     2
 66
     1
  2
DISK_Y
 10
26.34458
 20
-16.252888
 30
34.500753
 41
0.04
 42
0.288499
 50
147.0
 43
0.04
  0
ATTRIB
  8
0
 62
     0
 10
26.34458
 20
-16.252888
 30
34.500753
 40
0.02885
  1
Disk_Y
  2
NAME
 70
     1
 50
147.0
 41
0.138649
  0
ATTRIB
  8
0
 62
     0
 10
26.370768
 20
-16.212562
 30
34.500753
 40
0.02885
  1
intersection
  2
TYPE
 70
     1
 50
147.0
 41
0.138649
  0
SEQEND
  8
CRANE1
 62
     2
  0
INSERT
  8
CRANE1
 62
     2
 66
     1
  2
DISK_Y
 10
26.08786
 20
-16.756729
 30
34.500753
 41
0.04
 42
0.288499
 50
159.0
 43
0.04
  0
ATTRIB
  8
0
 62
     0
 10
26.08786
 20
-16.756729
 30
34.500753
 40
0.02885
  1
Disk_Y
  2
NAME
 70
     1
 50
159.0
 41
0.138649
  0
ATTRIB
  8
0
 62
     0
 10
26.105091
 20
-16.71184
 30
34.500753
 40
0.02885
  1
intersection
  2
TYPE
 70
     1
 50
159.0
 41
0.138649
  0
SEQEND
  8
CRANE1
 62
     2
  0
INSERT
  8
CRANE1
 62
     2
 66
     1
  2
DISK_Y
 10
25.941505
 20
-17.302935
 30
34.500753
 41
0.04
 42
0.288499
 50
171.0
 43
0.04
  0
ATTRIB
  8
0
 62
     0
 10
25.941505
 20
-17.302935
 30
34.500753
 40
0.02885
  1
Disk_Y
  2
NAME
 70
     1
 50
171.0
 41
0.138649
  0
ATTRIB
  8
0
 62
     0
 10
25.949026
 20
-17.255444
 30
34.500753
 40
0.02885
  1
intersection
  2
TYPE
 70
     1
 50
171.0
 41
0.138649
  0
SEQEND
  8
CRANE1
 62
     2
  0
INSERT
  8
CRANE1
 62
     2
 66
     1
  2
DISK_Y
 10
25.91191
 20
-17.867634
 30
34.500753
 41
0.04
 42
0.288499
 50
183.0
 43
0.04
  0
ATTRIB
  8
0
 62
     0
 10
25.91191
 20
-17.867634
 30
34.500753
 40
0.02885
  1
Disk_Y
  2
NAME
 70
     1
 50
183.0
 41
0.138649
  0
ATTRIB
  8
0
 62
     0
 10
25.909393
 20
-17.819617
 30
34.500753
 40
0.02885
  1
intersection
  2
TYPE
 70
     1
 50
183.0
 41
0.138649
  0
SEQEND
  8
CRANE1
 62
     2
  0
INSERT
  8
CRANE1
 62
     2
 66
     1
  2
DISK_Y
 10
26.00037
 20
-18.426146
 30
34.500753
 41
0.04
 42
0.288499
 50
195.0
 43
0.04
  0
ATTRIB
  8
0
 62
     0
 10
26.00037
 20
-18.426146
 30
34.500753
 40
0.02885
  1
Disk_Y
  2
NAME
 70
     1
 50
195.0
 41
0.138649
  0
ATTRIB
  8
0
 62
     0
 10
25.987925
 20
-18.379701
 30
34.500753
 40
0.02885
  1
intersection
  2
TYPE
 70
     1
 50
195.0
 41
0.138649
  0
SEQEND
  8
CRANE1
 62
     2
  0
INSERT
  8
CRANE1
 62
     2
 66
     1
  2
DISK_Y
 10
26.203017
 20
-18.954061
 30
34.500753
 41
0.04
 42
0.288499
 50
207.0
 43
0.04
  0
ATTRIB
  8
0
 62
     0
 10
26.203017
 20
-18.954061
 30
34.500753
 40
0.02885
  1
Disk_Y
  2
NAME
 70
     1
 50
207.0
 41
0.138649
  0
ATTRIB
  8
0
 62
     0
 10
26.181188
 20
-18.911219
 30
34.500753
 40
0.02885
  1
intersection
  2
TYPE
 70
     1
 50
207.0
 41
0.138649
  0
SEQEND
  8
CRANE1
 62
     2
  0
INSERT
  8
CRANE1
 62
     2
 66
     1
  2
DISK_Y
 10
26.510997
 20
-19.428308
 30
34.500753
 41
0.04
 42
0.288499
 50
219.0
 43
0.04
  0
ATTRIB
  8
0
 62
     0
 10
26.510997
 20
-19.428308
 30
34.500753
 40
0.02885
  1
Disk_Y
  2
NAME
 70
     1
 50
219.0
 41
0.138649
  0
ATTRIB
  8
0
 62
     0
 10
26.480737
 20
-19.39094
 30
34.500753
 40
0.02885
  1
intersection
  2
TYPE
 70
     1
 50
219.0
 41
0.138649
  0
SEQEND
  8
CRANE1
 62
     2
  0
INSERT
  8
CRANE1
 62
     2
 66
     1
  2
DISK_Y
 10
26.910847
 20
-19.828158
 30
34.500753
 41
0.04
 42
0.288499
 50
231.0
 43
0.04
  0
ATTRIB
  8
0
 62
     0
 10
26.910847
 20
-19.828158
 30
34.500753
 40
0.02885
  1
Disk_Y
  2
NAME
 70
     1
 50
231.0
 41
0.138649
  0
ATTRIB
  8
0
 62
     0
 10
26.873479
 20
-19.797899
 30
34.500753
 40
0.02885
  1
intersection
  2
TYPE
 70
     1
 50
231.0
 41
0.138649
  0
SEQEND
  8
CRANE1
 62
     2
  0
INSERT
  8
CRANE1
 62
     2
 66
     1
  2
DISK_Y
 10
27.385093
 20
-20.136138
 30
34.500753
 41
0.04
 42
0.288499
 50
243.0
 43
0.04
  0
ATTRIB
  8
0
 62
     0
 10
27.385093
 20
-20.136138
 30
34.500753
 40
0.02885
  1
Disk_Y
  2
NAME
 70
     1
 50
243.0
 41
0.138649
  0
ATTRIB
  8
0
 62
     0
 10
27.342251
 20
-20.114308
 30
34.500753
 40
0.02885
  1
intersection
  2
TYPE
 70
     1
 50
243.0
 41
0.138649
  0
SEQEND
  8
CRANE1
 62
     2
  0
INSERT
  8
CRANE1
 62
     2
 66
     1
  2
DISK_Y
 10
31.02315
 20
-16.498081
 30
33.900753
 41
0.04
 42
0.288499
 50
27.0
 43
0.04
  0
ATTRIB
  8
0
 62
     0
 10
31.02315
 20
-16.498081
 30
33.900753
 40
0.02885
  1
Disk_Y
  2
NAME
 70
     1
 50
27.0
 41
0.138649
  0
ATTRIB
  8
0
 62
     0
 10
31.044979
 20
-16.540924
 30
33.900753
 40
0.02885
  1
intersection
  2
TYPE
 70
     1
 50
27.0
 41
0.138649
  0
SEQEND
  8
CRANE1
 62
     2
  0
INSERT
  8
CRANE1
 62
     2
 66
     1
  2
DISK_Y
 10
30.086267
 20
-19.994575
 30
33.900753
 41
0.04
 42
0.288499
 50
303.0
 43
0.04
  0
ATTRIB
  8
0
 62
     0
 10
30.086267
 20
-19.994575
 30
33.900753
 40
0.02885
  1
Disk_Y
  2
NAME
 70
     1
 50
303.0
 41
0.138649
  0
ATTRIB
  8
0
 62
     0
 10
30.045941
 20
-20.020763
 30
33.900753
 40
0.02885
  1
intersection
  2
TYPE
 70
     1
 50
303.0
 41
0.138649
  0
SEQEND
  8
CRANE1
 62
     2
  0
INSERT
  8
CRANE1
 62
     2
 66
     1
  2
DISK_Y
 10
26.700444
 20
-15.813432
 30
33.900753
 41
0.04
 42
0.288499
 50
135.0
 43
0.04
  0
ATTRIB
  8
0
 62
     0
 10
26.700444
 20
-15.813432
 30
33.900753
 40
0.02885
  1
Disk_Y
  2
NAME
 70
     1
 50
135.0
 41
0.138649
  0
ATTRIB
  8
0
 62
     0
 10
26.734444
 20
-15.779432
 30
33.900753
 40
0.02885
  1
intersection
  2
TYPE
 70
     1
 50
135.0
 41
0.138649
  0
SEQEND
  8
CRANE1
 62
     2
  0
INSERT
  8
CRANE1
 62
     2
 66
     1
  2
DISK_Y
 10
26.910847
 20
-19.828158
 30
33.900753
 41
0.04
 42
0.288499
 50
231.0
 43
0.04
  0
ATTRIB
  8
0
 62
     0
 10
26.910847
 20
-19.828158
 30
33.900753
 40
0.02885
  1
Disk_Y
  2
NAME
 70
     1
 50
231.0
 41
0.138649
  0
ATTRIB
  8
0
 62
     0
 10
26.873479
 20
-19.797899
 30
33.900753
 40
0.02885
  1
intersection
  2
TYPE
 70
     1
 50
231.0
 41
0.138649
  0
SEQEND
  8
CRANE1
 62
     2
  0
INSERT
  8
CRANE1
 62
     2
 66
     1
  2
DISK_Y
 10
26.00037
 20
-18.426146
 30
33.900753
 41
0.04
 42
0.288499
 50
195.0
 43
0.04
  0
ATTRIB
  8
0
 62
     0
 10
26.00037
 20
-18.426146
 30
33.900753
 40
0.02885
  1
Disk_Y
  2
NAME
 70
     1
 50
195.0
 41
0.138649
  0
ATTRIB
  8
0
 62
     0
 10
25.987925
 20
-18.379701
 30
33.900753
 40
0.02885
  1
intersection
  2
TYPE
 70
     1
 50
195.0
 41
0.138649
  0
SEQEND
  8
CRANE1
 62
     2
  0
INSERT
  8
CRANE1
 62
     2
 66
     1
  2
DISK_Y
 10
26.510997
 20
-19.428308
 30
33.900753
 41
0.04
 42
0.288499
 50
219.0
 43
0.04
  0
ATTRIB
  8
0
 62
     0
 10
26.510997
 20
-19.428308
 30
33.900753
 40
0.02885
  1
Disk_Y
  2
NAME
 70
     1
 50
219.0
 41
0.138649
  0
ATTRIB
  8
0
 62
     0
 10
26.480737
 20
-19.39094
 30
33.900753
 40
0.02885
  1
intersection
  2
TYPE
 70
     1
 50
219.0
 41
0.138649
  0
SEQEND
  8
CRANE1
 62
     2
  0
INSERT
  8
CRANE1
 62
     2
 66
     1
  2
DISK_Y
 10
26.203017
 20
-18.954061
 30
33.900753
 41
0.04
 42
0.288499
 50
207.0
 43
0.04
  0
ATTRIB
  8
0
 62
     0
 10
26.203017
 20
-18.954061
 30
33.900753
 40
0.02885
  1
Disk_Y
  2
NAME
 70
     1
 50
207.0
 41
0.138649
  0
ATTRIB
  8
0
 62
     0
 10
26.181188
 20
-18.911219
 30
33.900753
 40
0.02885
  1
intersection
  2
TYPE
 70
     1
 50
207.0
 41
0.138649
  0
SEQEND
  8
CRANE1
 62
     2
  0
POINT
  8
CRANE1
 62
     2
 10
26.298353
 20
-19.229275
 30
33.900753
  0
POINT
  8
CRANE1
 62
     2
 10
26.036401
 20
-18.715167
 30
33.900753
  0
POINT
  8
CRANE1
 62
     2
 10
26.661469
 20
-19.677686
 30
33.900753
  0
INSERT
  8
CRANE1
 62
     2
 66
     1
  2
DISK_Y
 10
25.91191
 20
-17.867634
 30
33.900753
 41
0.04
 42
0.288499
 50
183.0
 43
0.04
  0
ATTRIB
  8
0
 62
     0
 10
25.91191
 20
-17.867634
 30
33.900753
 40
0.02885
  1
Disk_Y
  2
NAME
 70
     1
 50
183.0
 41
0.138649
  0
ATTRIB
  8
0
 62
     0
 10
25.909393
 20
-17.819617
 30
33.900753
 40
0.02885
  1
intersection
  2
TYPE
 70
     1
 50
183.0
 41
0.138649
  0
SEQEND
  8
CRANE1
 62
     2
  0
INSERT
  8
CRANE1
 62
     2
 66
     1
  2
DISK_Y
 10
26.34458
 20
-16.252888
 30
33.900753
 41
0.04
 42
0.288499
 50
147.0
 43
0.04
  0
ATTRIB
  8
0
 62
     0
 10
26.34458
 20
-16.252888
 30
33.900753
 40
0.02885
  1
Disk_Y
  2
NAME
 70
     1
 50
147.0
 41
0.138649
  0
ATTRIB
  8
0
 62
     0
 10
26.370768
 20
-16.212562
 30
33.900753
 40
0.02885
  1
intersection
  2
TYPE
 70
     1
 50
147.0
 41
0.138649
  0
SEQEND
  8
CRANE1
 62
     2
  0
INSERT
  8
CRANE1
 62
     2
 66
     1
  2
DISK_Y
 10
26.08786
 20
-16.756729
 30
33.900753
 41
0.04
 42
0.288499
 50
159.0
 43
0.04
  0
ATTRIB
  8
0
 62
     0
 10
26.08786
 20
-16.756729
 30
33.900753
 40
0.02885
  1
Disk_Y
  2
NAME
 70
     1
 50
159.0
 41
0.138649
  0
ATTRIB
  8
0
 62
     0
 10
26.105091
 20
-16.71184
 30
33.900753
 40
0.02885
  1
intersection
  2
TYPE
 70
     1
 50
159.0
 41
0.138649
  0
SEQEND
  8
CRANE1
 62
     2
  0
INSERT
  8
CRANE1
 62
     2
 66
     1
  2
DISK_Y
 10
25.941505
 20
-17.302935
 30
33.900753
 41
0.04
 42
0.288499
 50
171.0
 43
0.04
  0
ATTRIB
  8
0
 62
     0
 10
25.941505
 20
-17.302935
 30
33.900753
 40
0.02885
  1
Disk_Y
  2
NAME
 70
     1
 50
171.0
 41
0.138649
  0
ATTRIB
  8
0
 62
     0
 10
25.949026
 20
-17.255444
 30
33.900753
 40
0.02885
  1
intersection
  2
TYPE
 70
     1
 50
171.0
 41
0.138649
  0
SEQEND
  8
CRANE1
 62
     2
  0
POINT
  8
CRANE1
 62
     2
 10
25.947128
 20
-17.011731
 30
33.900753
  0
POINT
  8
CRANE1
 62
     2
 10
25.856866
 20
-17.581624
 30
33.900753
  0
POINT
  8
CRANE1
 62
     2
 10
26.153905
 20
-16.473058
 30
33.900753
  0
POINT
  8
CRANE1
 62
     2
 10
25.887064
 20
-18.157831
 30
33.900753
  0
POINT
  8
CRANE1
 62
     2
 10
26.468161
 20
-15.989147
 30
33.900753
  0
INSERT
  8
CRANE1
 62
     2
 66
     1
  2
DISK_Y
 10
28.471521
 20
-20.427245
 30
33.900753
 41
0.04
 42
0.288499
 50
267.0
 43
0.04
  0
ATTRIB
  8
0
 62
     0
 10
28.471521
 20
-20.427245
 30
33.900753
 40
0.02885
  1
Disk_Y
  2
NAME
 70
     1
 50
267.0
 41
0.138649
  0
ATTRIB
  8
0
 62
     0
 10
28.423504
 20
-20.424728
 30
33.900753
 40
0.02885
  1
intersection
  2
TYPE
 70
     1
 50
267.0
 41
0.138649
  0
SEQEND
  8
CRANE1
 62
     2
  0
INSERT
  8
CRANE1
 62
     2
 66
     1
  2
DISK_Y
 10
27.385093
 20
-20.136138
 30
33.900753
 41
0.04
 42
0.288499
 50
243.0
 43
0.04
  0
ATTRIB
  8
0
 62
     0
 10
27.385093
 20
-20.136138
 30
33.900753
 40
0.02885
  1
Disk_Y
  2
NAME
 70
     1
 50
243.0
 41
0.138649
  0
ATTRIB
  8
0
 62
     0
 10
27.342251
 20
-20.114308
 30
33.900753
 40
0.02885
  1
intersection
  2
TYPE
 70
     1
 50
243.0
 41
0.138649
  0
SEQEND
  8
CRANE1
 62
     2
  0
INSERT
  8
CRANE1
 62
     2
 66
     1
  2
DISK_Y
 10
27.913009
 20
-20.338785
 30
33.900753
 41
0.04
 42
0.288499
 50
255.0
 43
0.04
  0
ATTRIB
  8
0
 62
     0
 10
27.913009
 20
-20.338785
 30
33.900753
 40
0.02885
  1
Disk_Y
  2
NAME
 70
     1
 50
255.0
 41
0.138649
  0
ATTRIB
  8
0
 62
     0
 10
27.866564
 20
-20.32634
 30
33.900753
 40
0.02885
  1
intersection
  2
TYPE
 70
     1
 50
255.0
 41
0.138649
  0
SEQEND
  8
CRANE1
 62
     2
  0
POINT
  8
CRANE1
 62
     2
 10
27.623988
 20
-20.302753
 30
33.900753
  0
POINT
  8
CRANE1
 62
     2
 10
27.10988
 20
-20.040802
 30
33.900753
  0
POINT
  8
CRANE1
 62
     2
 10
28.181324
 20
-20.452091
 30
33.900753
  0
INSERT
  8
CRANE1
 62
     2
 66
     1
  2
DISK_Y
 10
29.03622
 20
-20.39765
 30
33.900753
 41
0.04
 42
0.288499
 50
279.0
 43
0.04
  0
ATTRIB
  8
0
 62
     0
 10
29.03622
 20
-20.39765
 30
33.900753
 40
0.02885
  1
Disk_Y
  2
NAME
 70
     1
 50
279.0
 41
0.138649
  0
ATTRIB
  8
0
 62
     0
 10
28.988729
 20
-20.405172
 30
33.900753
 40
0.02885
  1
intersection
  2
TYPE
 70
     1
 50
279.0
 41
0.138649
  0
SEQEND
  8
CRANE1
 62
     2
  0
POINT
  8
CRANE1
 62
     2
 10
28.757531
 20
-20.482289
 30
33.900753
  0
INSERT
  8
CRANE1
 62
     2
 66
     1
  2
DISK_Y
 10
29.582426
 20
-20.251295
 30
33.900753
 41
0.04
 42
0.288499
 50
291.0
 43
0.04
  0
ATTRIB
  8
0
 62
     0
 10
29.582426
 20
-20.251295
 30
33.900753
 40
0.02885
  1
Disk_Y
  2
NAME
 70
     1
 50
291.0
 41
0.138649
  0
ATTRIB
  8
0
 62
     0
 10
29.537536
 20
-20.268526
 30
33.900753
 40
0.02885
  1
intersection
  2
TYPE
 70
     1
 50
291.0
 41
0.138649
  0
SEQEND
  8
CRANE1
 62
     2
  0
POINT
  8
CRANE1
 62
     2
 10
29.866097
 20
-20.185249
 30
33.900753
  0
POINT
  8
CRANE1
 62
     2
 10
29.327424
 20
-20.392027
 30
33.900753
  0
INSERT
  8
CRANE1
 62
     2
 66
     1
  2
DISK_Y
 10
28.189947
 20
-15.054493
 30
33.900753
 41
0.04
 42
0.288499
 50
99.0
 43
0.04
  0
ATTRIB
  8
0
 62
     0
 10
28.189947
 20
-15.054493
 30
33.900753
 40
0.02885
  1
Disk_Y
  2
NAME
 70
     1
 50
99.0
 41
0.138649
  0
ATTRIB
  8
0
 62
     0
 10
28.237438
 20
-15.046971
 30
33.900753
 40
0.02885
  1
intersection
  2
TYPE
 70
     1
 50
99.0
 41
0.138649
  0
SEQEND
  8
CRANE1
 62
     2
  0
INSERT
  8
CRANE1
 62
     2
 66
     1
  2
DISK_Y
 10
27.1399
 20
-15.457568
 30
33.900753
 41
0.04
 42
0.288499
 50
123.0
 43
0.04
  0
ATTRIB
  8
0
 62
     0
 10
27.1399
 20
-15.457568
 30
33.900753
 40
0.02885
  1
Disk_Y
  2
NAME
 70
     1
 50
123.0
 41
0.138649
  0
ATTRIB
  8
0
 62
     0
 10
27.180226
 20
-15.43138
 30
33.900753
 40
0.02885
  1
intersection
  2
TYPE
 70
     1
 50
123.0
 41
0.138649
  0
SEQEND
  8
CRANE1
 62
     2
  0
INSERT
  8
CRANE1
 62
     2
 66
     1
  2
DISK_Y
 10
27.643741
 20
-15.200848
 30
33.900753
 41
0.04
 42
0.288499
 50
111.0
 43
0.04
  0
ATTRIB
  8
0
 62
     0
 10
27.643741
 20
-15.200848
 30
33.900753
 40
0.02885
  1
Disk_Y
  2
NAME
 70
     1
 50
111.0
 41
0.138649
  0
ATTRIB
  8
0
 62
     0
 10
27.68863
 20
-15.183617
 30
33.900753
 40
0.02885
  1
intersection
  2
TYPE
 70
     1
 50
111.0
 41
0.138649
  0
SEQEND
  8
CRANE1
 62
     2
  0
POINT
  8
CRANE1
 62
     2
 10
27.36007
 20
-15.266893
 30
33.900753
  0
POINT
  8
CRANE1
 62
     2
 10
26.876159
 20
-15.581149
 30
33.900753
  0
POINT
  8
CRANE1
 62
     2
 10
27.898743
 20
-15.060116
 30
33.900753
  0
INSERT
  8
CRANE1
 62
     2
 66
     1
  2
DISK_Y
 10
29.841073
 20
-15.316005
 30
33.900753
 41
0.04
 42
0.288499
 50
63.0
 43
0.04
  0
ATTRIB
  8
0
 62
     0
 10
29.841073
 20
-15.316005
 30
33.900753
 40
0.02885
  1
Disk_Y
  2
NAME
 70
     1
 50
63.0
 41
0.138649
  0
ATTRIB
  8
0
 62
     0
 10
29.883916
 20
-15.337835
 30
33.900753
 40
0.02885
  1
intersection
  2
TYPE
 70
     1
 50
63.0
 41
0.138649
  0
SEQEND
  8
CRANE1
 62
     2
  0
INSERT
  8
CRANE1
 62
     2
 66
     1
  2
DISK_Y
 10
29.313158
 20
-15.113358
 30
33.900753
 41
0.04
 42
0.288499
 50
75.0
 43
0.04
  0
ATTRIB
  8
0
 62
     0
 10
29.313158
 20
-15.113358
 30
33.900753
 40
0.02885
  1
Disk_Y
  2
NAME
 70
     1
 50
75.0
 41
0.138649
  0
ATTRIB
  8
0
 62
     0
 10
29.359603
 20
-15.125802
 30
33.900753
 40
0.02885
  1
intersection
  2
TYPE
 70
     1
 50
75.0
 41
0.138649
  0
SEQEND
  8
CRANE1
 62
     2
  0
INSERT
  8
CRANE1
 62
     2
 66
     1
  2
DISK_Y
 10
28.754646
 20
-15.024898
 30
33.900753
 41
0.04
 42
0.288499
 50
87.0
 43
0.04
  0
ATTRIB
  8
0
 62
     0
 10
28.754646
 20
-15.024898
 30
33.900753
 40
0.02885
  1
Disk_Y
  2
NAME
 70
     1
 50
87.0
 41
0.138649
  0
ATTRIB
  8
0
 62
     0
 10
28.802663
 20
-15.027414
 30
33.900753
 40
0.02885
  1
intersection
  2
TYPE
 70
     1
 50
87.0
 41
0.138649
  0
SEQEND
  8
CRANE1
 62
     2
  0
POINT
  8
CRANE1
 62
     2
 10
29.044843
 20
-15.000052
 30
33.900753
  0
POINT
  8
CRANE1
 62
     2
 10
28.468636
 20
-14.969854
 30
33.900753
  0
POINT
  8
CRANE1
 62
     2
 10
29.602179
 20
-15.149389
 30
33.900753
  0
INSERT
  8
CRANE1
 62
     2
 66
     1
  2
DISK_Y
 10
30.31532
 20
-15.623985
 30
33.900753
 41
0.04
 42
0.288499
 50
51.0
 43
0.04
  0
ATTRIB
  8
0
 62
     0
 10
30.31532
 20
-15.623985
 30
33.900753
 40
0.02885
  1
Disk_Y
  2
NAME
 70
     1
 50
51.0
 41
0.138649
  0
ATTRIB
  8
0
 62
     0
 10
30.352687
 20
-15.654244
 30
33.900753
 40
0.02885
  1
intersection
  2
TYPE
 70
     1
 50
51.0
 41
0.138649
  0
SEQEND
  8
CRANE1
 62
     2
  0
POINT
  8
CRANE1
 62
     2
 10
30.116287
 20
-15.411341
 30
33.900753
  0
INSERT
  8
CRANE1
 62
     2
 66
     1
  2
DISK_Y
 10
30.71517
 20
-16.023835
 30
33.900753
 41
0.04
 42
0.288499
 50
39.0
 43
0.04
  0
ATTRIB
  8
0
 62
     0
 10
30.71517
 20
-16.023835
 30
33.900753
 40
0.02885
  1
Disk_Y
  2
NAME
 70
     1
 50
39.0
 41
0.138649
  0
ATTRIB
  8
0
 62
     0
 10
30.74543
 20
-16.061203
 30
33.900753
 40
0.02885
  1
intersection
  2
TYPE
 70
     1
 50
39.0
 41
0.138649
  0
SEQEND
  8
CRANE1
 62
     2
  0
POINT
  8
CRANE1
 62
     2
 10
30.927814
 20
-16.222868
 30
33.900753
  0
POINT
  8
CRANE1
 62
     2
 10
30.564698
 20
-15.774457
 30
33.900753
  0
INSERT
  8
CRANE1
 62
     2
 66
     1
  2
DISK_Y
 10
31.225797
 20
-17.025997
 30
33.900753
 41
0.04
 42
0.288499
 50
15.0
 43
0.04
  0
ATTRIB
  8
0
 62
     0
 10
31.225797
 20
-17.025997
 30
33.900753
 40
0.02885
  1
Disk_Y
  2
NAME
 70
     1
 50
15.0
 41
0.138649
  0
ATTRIB
  8
0
 62
     0
 10
31.238242
 20
-17.072442
 30
33.900753
 40
0.02885
  1
intersection
  2
TYPE
 70
     1
 50
15.0
 41
0.138649
  0
SEQEND
  8
CRANE1
 62
     2
  0
INSERT
  8
CRANE1
 62
     2
 66
     1
  2
DISK_Y
 10
30.525723
 20
-19.638711
 30
33.900753
 41
0.04
 42
0.288499
 50
315.0
 43
0.04
  0
ATTRIB
  8
0
 62
     0
 10
30.525723
 20
-19.638711
 30
33.900753
 40
0.02885
  1
Disk_Y
  2
NAME
 70
     1
 50
315.0
 41
0.138649
  0
ATTRIB
  8
0
 62
     0
 10
30.491723
 20
-19.672711
 30
33.900753
 40
0.02885
  1
intersection
  2
TYPE
 70
     1
 50
315.0
 41
0.138649
  0
SEQEND
  8
CRANE1
 62
     2
  0
POINT
  8
CRANE1
 62
     2
 10
30.350008
 20
-19.870994
 30
33.900753
  0
INSERT
  8
CRANE1
 62
     2
 66
     1
  2
DISK_Y
 10
31.284662
 20
-18.149208
 30
33.900753
 41
0.04
 42
0.288499
 50
351.0
 43
0.04
  0
ATTRIB
  8
0
 62
     0
 10
31.284662
 20
-18.149208
 30
33.900753
 40
0.02885
  1
Disk_Y
  2
NAME
 70
     1
 50
351.0
 41
0.138649
  0
ATTRIB
  8
0
 62
     0
 10
31.27714
 20
-18.196699
 30
33.900753
 40
0.02885
  1
intersection
  2
TYPE
 70
     1
 50
351.0
 41
0.138649
  0
SEQEND
  8
CRANE1
 62
     2
  0
INSERT
  8
CRANE1
 62
     2
 66
     1
  2
DISK_Y
 10
31.138307
 20
-18.695414
 30
33.900753
 41
0.04
 42
0.288499
 50
339.0
 43
0.04
  0
ATTRIB
  8
0
 62
     0
 10
31.138307
 20
-18.695414
 30
33.900753
 40
0.02885
  1
Disk_Y
  2
NAME
 70
     1
 50
339.0
 41
0.138649
  0
ATTRIB
  8
0
 62
     0
 10
31.121075
 20
-18.740303
 30
33.900753
 40
0.02885
  1
intersection
  2
TYPE
 70
     1
 50
339.0
 41
0.138649
  0
SEQEND
  8
CRANE1
 62
     2
  0
INSERT
  8
CRANE1
 62
     2
 66
     1
  2
DISK_Y
 10
30.881587
 20
-19.199255
 30
33.900753
 41
0.04
 42
0.288499
 50
327.0
 43
0.04
  0
ATTRIB
  8
0
 62
     0
 10
30.881587
 20
-19.199255
 30
33.900753
 40
0.02885
  1
Disk_Y
  2
NAME
 70
     1
 50
327.0
 41
0.138649
  0
ATTRIB
  8
0
 62
     0
 10
30.855399
 20
-19.239581
 30
33.900753
 40
0.02885
  1
intersection
  2
TYPE
 70
     1
 50
327.0
 41
0.138649
  0
SEQEND
  8
CRANE1
 62
     2
  0
POINT
  8
CRANE1
 62
     2
 10
31.279039
 20
-18.440412
 30
33.900753
  0
POINT
  8
CRANE1
 62
     2
 10
31.072261
 20
-18.979085
 30
33.900753
  0
POINT
  8
CRANE1
 62
     2
 10
30.758006
 20
-19.462996
 30
33.900753
  0
INSERT
  8
CRANE1
 62
     2
 66
     1
  2
DISK_Y
 10
31.314257
 20
-17.584509
 30
33.900753
 41
0.04
 42
0.288499
 50
3.0
 43
0.04
  0
ATTRIB
  8
0
 62
     0
 10
31.314257
 20
-17.584509
 30
33.900753
 40
0.02885
  1
Disk_Y
  2
NAME
 70
     1
 50
3.0
 41
0.138649
  0
ATTRIB
  8
0
 62
     0
 10
31.316773
 20
-17.632526
 30
33.900753
 40
0.02885
  1
intersection
  2
TYPE
 70
     1
 50
3.0
 41
0.138649
  0
SEQEND
  8
CRANE1
 62
     2
  0
POINT
  8
CRANE1
 62
     2
 10
31.369301
 20
-17.870519
 30
33.900753
  0
POINT
  8
CRANE1
 62
     2
 10
31.339103
 20
-17.294312
 30
33.900753
  0
POINT
  8
CRANE1
 62
     2
 10
31.189765
 20
-16.736976
 30
33.900753
  0
INSERT
  8
CRANE1
 62
     2
 66
     1
  2
DISK_Y
 10
32.225961
 20
33.850753
 30
12.42134
 41
0.04
 42
0.65
 50
180.0
 43
0.04
210
-0.2588190451025205
220
-0.9659258262890684
230
0.0
  0
ATTRIB
  8
0
 62
     0
 10
32.225961
 20
33.850753
 30
12.42134
 40
0.065
  1
Disk_Y
  2
NAME
 70
     1
 50
180.0
 41
0.061538
210
-0.2588190451025205
220
-0.9659258262890684
230
0.0
  0
ATTRIB
  8
0
 62
     0
 10
32.225961
 20
33.959086
 30
12.42134
 40
0.065
  1
intersection
  2
TYPE
 70
     1
 50
180.0
 41
0.061538
210
-0.2588190451025205
220
-0.9659258262890684
230
0.0
  0
SEQEND
  8
CRANE1
 62
     2
  0
INSERT
  8
CRANE1
 62
     2
 66
     1
  2
DISK_Y
 10
15.916621
 20
33.850753
 30
32.36265
 41
0.04
 42
0.65
 50
180.0
 43
0.04
210
0.5000000000000002
220
-0.8660254037844385
230
0.0
  0
ATTRIB
  8
0
 62
     0
 10
15.916621
 20
33.850753
 30
32.36265
 40
0.065
  1
Disk_Y
  2
NAME
 70
     1
 50
180.0
 41
0.061538
210
0.5000000000000002
220
-0.8660254037844385
230
0.0
  0
ATTRIB
  8
0
 62
     0
 10
15.916621
 20
33.959086
 30
32.36265
 40
0.065
  1
intersection
  2
TYPE
 70
     1
 50
180.0
 41
0.061538
210
0.5000000000000002
220
-0.8660254037844385
230
0.0
  0
SEQEND
  8
CRANE1
 62
     2
  0
INSERT
  8
CRANE1
 62
     2
 66
     1
  2
DISK_Y
 10
-9.716459
 20
33.850753
 30
34.930842
 41
0.04
 42
0.65
 50
180.0
 43
0.04
210
0.9659258262890684
220
-0.2588190451025205
230
0.0
  0
ATTRIB
  8
0
 62
     0
 10
-9.716459
 20
33.850753
 30
34.930842
 40
0.065
  1
Disk_Y
  2
NAME
 70
     1
 50
180.0
 41
0.061538
210
0.9659258262890684
220
-0.2588190451025205
230
0.0
  0
ATTRIB
  8
0
 62
     0
 10
-9.716459
 20
33.959086
 30
34.930842
 40
0.065
  1
intersection
  2
TYPE
 70
     1
 50
180.0
 41
0.061538
210
0.9659258262890684
220
-0.2588190451025205
230
0.0
  0
SEQEND
  8
CRANE1
 62
     2
  0
INSERT
  8
CRANE1
 62
     2
 66
     1
  2
DISK_Y
 10
-29.65777
 20
33.850753
 30
18.621502
 41
0.04
 42
0.65
 50
180.0
 43
0.04
210
0.8660254037844385
220
0.5000000000000002
230
0.0
  0
ATTRIB
  8
0
 62
     0
 10
-29.65777
 20
33.850753
 30
18.621502
 40
0.065
  1
Disk_Y
  2
NAME
 70
     1
 50
180.0
 41
0.061538
210
0.8660254037844385
220
0.5000000000000002
230
0.0
  0
ATTRIB
  8
0
 62
     0
 10
-29.65777
 20
33.959086
 30
18.621502
 40
0.065
  1
intersection
  2
TYPE
 70
     1
 50
180.0
 41
0.061538
210
0.8660254037844385
220
0.5000000000000002
230
0.0
  0
SEQEND
  8
CRANE1
 62
     2
  0
INSERT
  8
CRANE1
 62
     2
 66
     1
  2
DISK_Y
 10
-32.225961
 20
33.850753
 30
-7.011579
 41
0.04
 42
0.65
 50
180.0
 43
0.04
210
0.2588190451025205
220
0.9659258262890684
230
0.0
  0
ATTRIB
  8
0
 62
     0
 10
-32.225961
 20
33.850753
 30
-7.011579
 40
0.065
  1
Disk_Y
  2
NAME
 70
     1
 50
180.0
 41
0.061538
210
0.2588190451025205
220
0.9659258262890684
230
0.0
  0
ATTRIB
  8
0
 62
     0
 10
-32.225961
 20
33.959086
 30
-7.011579
 40
0.065
  1
intersection
  2
TYPE
 70
     1
 50
180.0
 41
0.061538
210
0.2588190451025205
220
0.9659258262890684
230
0.0
  0
SEQEND
  8
CRANE1
 62
     2
  0
INSERT
  8
CRANE1
 62
     2
 66
     1
  2
DISK_Y
 10
-15.916621
 20
33.850753
 30
-26.952889
 41
0.04
 42
0.65
 50
180.0
 43
0.04
210
-0.5000000000000002
220
0.8660254037844385
230
0.0
  0
ATTRIB
  8
0
 62
     0
 10
-15.916621
 20
33.850753
 30
-26.952889
 40
0.065
  1
Disk_Y
  2
NAME
 70
     1
 50
180.0
 41
0.061538
210
-0.5000000000000002
220
0.8660254037844385
230
0.0
  0
ATTRIB
  8
0
 62
     0
 10
-15.916621
 20
33.959086
 30
-26.952889
 40
0.065
  1
intersection
  2
TYPE
 70
     1
 50
180.0
 41
0.061538
210
-0.5000000000000002
220
0.8660254037844385
230
0.0
  0
SEQEND
  8
CRANE1
 62
     2
  0
INSERT
  8
CRANE1
 62
     2
 66
     1
  2
DISK_Y
 10
9.716459
 20
33.850753
 30
-29.521081
 41
0.04
 42
0.65
 50
180.0
 43
0.04
210
-0.9659258262890684
220
0.2588190451025205
230
0.0
  0
ATTRIB
  8
0
 62
     0
 10
9.716459
 20
33.850753
 30
-29.521081
 40
0.065
  1
Disk_Y
  2
NAME
 70
     1
 50
180.0
 41
0.061538
210
-0.9659258262890684
220
0.2588190451025205
230
0.0
  0
ATTRIB
  8
0
 62
     0
 10
9.716459
 20
33.959086
 30
-29.521081
 40
0.065
  1
intersection
  2
TYPE
 70
     1
 50
180.0
 41
0.061538
210
-0.9659258262890684
220
0.2588190451025205
230
0.0
  0
SEQEND
  8
CRANE1
 62
     2
  0
INSERT
  8
CRANE1
 62
     2
 66
     1
  2
DISK_Y
 10
29.65777
 20
33.850753
 30
-13.211741
 41
0.04
 42
0.65
 50
180.0
 43
0.04
210
-0.8660254037844385
220
-0.5000000000000002
230
0.0
  0
ATTRIB
  8
0
 62
     0
 10
29.65777
 20
33.850753
 30
-13.211741
 40
0.065
  1
Disk_Y
  2
NAME
 70
     1
 50
180.0
 41
0.061538
210
-0.8660254037844385
220
-0.5000000000000002
230
0.0
  0
ATTRIB
  8
0
 62
     0
 10
29.65777
 20
33.959086
 30
-13.211741
 40
0.065
  1
intersection
  2
TYPE
 70
     1
 50
180.0
 41
0.061538
210
-0.8660254037844385
220
-0.5000000000000002
230
0.0
  0
SEQEND
  8
CRANE1
 62
     2
  0
INSERT
  8
CRANE1
 62
     2
 66
     1
  2
DISK_Z
 10
28.613083
 20
-17.726071
 30
33.186336
 41
2.762
 42
2.762
 50
345.0
 43
0.1
  0
ATTRIB
  8
0
 62
     0
 10
28.613083
 20
-17.726071
 30
33.186336
 40
0.2762
  1
Disk_Z
  2
NAME
 70
     1
 50
345.0
  0
ATTRIB
  8
0
 62
     0
 10
28.49394
 20
-18.170719
 30
33.186336
 40
0.2762
  1
intersection
  2
TYPE
 70
     1
 50
345.0
  0
SEQEND
  8
CRANE1
 62
     2
  0
INSERT
  8
BOOM1
 62
     2
 66
     1
  2
DISK_Z
 10
-66.903235
 20
67.227416
 30
-16.996939
 41
0.788346
 42
0.788346
 43
0.1
210
-0.0000000000000009
220
1.0
230
0.0
  0
ATTRIB
  8
0
 62
     0
 10
-66.903235
 20
17.754263
 30
-101.978618
 40
0.078835
  1
Disk_Z
  2
NAME
 70
     1
210
-0.0000000000000009
220
1.0
230
0.0
  0
ATTRIB
  8
0
 62
     0
 10
-66.903235
 20
17.622872
 30
-101.978618
 40
0.078835
  1
intersection
  2
TYPE
 70
     1
210
-0.0000000000000009
220
1.0
230
0.0
  0
SEQEND
  8
BOOM1
 62
     2
  0
INSERT
  8
BOOM1
 62
     2
 66
     1
  2
DISK_Z
 10
-66.903235
 20
67.227416
 30
-17.69788
 41
0.293976
 42
0.293976
 43
0.7883
210
-0.0000000000000009
220
1.0
230
0.0
  0
ATTRIB
  8
0
 62
     0
 10
-66.903235
 20
67.227416
 30
-17.69788
 40
0.029398
  1
Disk_Z
  2
NAME
 70
     1
210
-0.0000000000000009
220
1.0
230
0.0
  0
ATTRIB
  8
0
 62
     0
 10
-66.903235
 20
67.17842
 30
-17.69788
 40
0.029398
  1
intersection
  2
TYPE
 70
     1
210
-0.0000000000000009
220
1.0
230
0.0
  0
SEQEND
  8
BOOM1
 62
     2
  0
INSERT
  8
BOOM1
 62
     2
 66
     1
  2
DISK_Z
 10
66.903235
 20
67.227416
 30
18.398822
 41
-0.788346
 42
0.788346
 43
0.1
210
0.0000000000000009
220
-1.0
230
0.0
  0
ATTRIB
  8
0
 62
     0
 10
66.903235
 20
17.754263
 30
-66.582857
 40
0.078835
  1
Disk_Z
  2
NAME
 70
     1
 71
     2
210
0.0000000000000009
220
-1.0
230
0.0
  0
ATTRIB
  8
0
 62
     0
 10
66.903235
 20
17.622872
 30
-66.582857
 40
0.078835
  1
intersection
  2
TYPE
 70
     1
 71
     2
210
0.0000000000000009
220
-1.0
230
0.0
  0
SEQEND
  8
BOOM1
 62
     2
  0
INSERT
  8
BOOM1
 62
     2
 66
     1
  2
DISK_Z
 10
23.611316
 20
55.849269
 30
18.398822
 41
-0.788346
 42
0.788346
 43
0.1
210
0.0000000000000009
220
-1.0
230
0.0
  0
ATTRIB
  8
0
 62
     0
 10
23.611316
 20
6.376115
 30
-66.582857
 40
0.078835
  1
Disk_Z
  2
NAME
 70
     1
 71
     2
210
0.0000000000000009
220
-1.0
230
0.0
  0
ATTRIB
  8
0
 62
     0
 10
23.611316
 20
6.244724
 30
-66.582857
 40
0.078835
  1
intersection
  2
TYPE
 70
     1
 71
     2
210
0.0000000000000009
220
-1.0
230
0.0
  0
SEQEND
  8
BOOM1
 62
     2
  0
INSERT
  8
BOOM1
 62
     2
 66
     1
  2
DISK_Z
 10
-23.611316
 20
55.849269
 30
-17.69788
 41
0.293976
 42
0.293976
 43
0.7883
210
-0.0000000000000009
220
1.0
230
0.0
  0
ATTRIB
  8
0
 62
     0
 10
-23.611316
 20
55.849269
 30
-17.69788
 40
0.029398
  1
Disk_Z
  2
NAME
 70
     1
210
-0.0000000000000009
220
1.0
230
0.0
  0
ATTRIB
  8
0
 62
     0
 10
-23.611316
 20
55.800273
 30
-17.69788
 40
0.029398
  1
intersection
  2
TYPE
 70
     1
210
-0.0000000000000009
220
1.0
230
0.0
  0
SEQEND
  8
BOOM1
 62
     2
  0
INSERT
  8
BOOM1
 62
     2
 66
     1
  2
DISK_Z
 10
-23.611316
 20
55.849269
 30
-16.996939
 41
0.788346
 42
0.788346
 43
0.1
210
-0.0000000000000009
220
1.0
230
0.0
  0
ATTRIB
  8
0
 62
     0
 10
-23.611316
 20
6.376115
 30
-101.978618
 40
0.078835
  1
Disk_Z
  2
NAME
 70
     1
210
-0.0000000000000009
220
1.0
230
0.0
  0
ATTRIB
  8
0
 62
     0
 10
-23.611316
 20
6.244724
 30
-101.978618
 40
0.078835
  1
intersection
  2
TYPE
 70
     1
210
-0.0000000000000009
220
1.0
230
0.0
  0
SEQEND
  8
BOOM1
 62
     2
  0
INSERT
  8
BOOM1
 62
     7
 66
     1
  2
DISK_Y
 10
-66.903235
 20
50.211676
 30
-17.69788
 41
0.1
 42
0.8
 43
0.1
210
-0.0000000000000009
220
1.0
230
0.0
  0
ATTRIB
  8
0
 62
     0
 10
-66.903235
 20
50.211676
 30
-17.69788
 40
0.02
  1
Disk_Y
  2
NAME
 70
     1
210
-0.0000000000000009
220
1.0
230
0.0
  0
ATTRIB
  8
0
 62
     0
 10
-66.903235
 20
50.178343
 30
-17.69788
 40
0.02
  1
intersection
  2
TYPE
 70
     1
210
-0.0000000000000009
220
1.0
230
0.0
  0
SEQEND
  8
BOOM1
 62
     7
  0
INSERT
  8
BOOM1
 62
   188
 66
     1
  2
DISK_Y
 10
-45.257275
 20
61.538342
 30
-17.29788
 41
0.02
 42
22.381088
 50
75.27434
 43
0.02
210
-0.0000000000000009
220
1.0
230
0.0
  0
ATTRIB
  8
0
 62
     0
 10
-45.257275
 20
61.538342
 30
-17.29788
 40
2.238109
  1
Disk_Y
  2
NAME
 70
     1
 50
75.27434
 41
0.000447
210
-0.0000000000000009
220
1.0
230
0.0
  0
ATTRIB
  8
0
 62
     0
 10
-41.649615
 20
60.590163
 30
-17.29788
 40
2.238109
  1
intersection
  2
TYPE
 70
     1
 50
75.27434
 41
0.000447
210
-0.0000000000000009
220
1.0
230
0.0
  0
SEQEND
  8
BOOM1
 62
   188
  0
INSERT
  8
BOOM1
 62
   188
 66
     1
  2
DISK_Y
 10
-66.903235
 20
55.713866
 30
-17.69788
 41
0.02
 42
11.51355
 50
180.0
 43
0.02
210
-0.0000000000000009
220
1.0
230
0.0
  0
ATTRIB
  8
0
 62
     0
 10
66.903235
 20
55.713866
 30
17.69788
 40
1.151355
  1
Disk_Y
  2
NAME
 70
     1
 50
180.0
 41
0.000869
210
-0.0000000000000009
220
1.0
230
0.0
  0
ATTRIB
  8
0
 62
     0
 10
66.903235
 20
57.632791
 30
17.69788
 40
1.151355
  1
intersection
  2
TYPE
 70
     1
 50
180.0
 41
0.000869
210
-0.0000000000000009
220
1.0
230
0.0
  0
SEQEND
  8
BOOM1
 62
   188
  0
INSERT
  8
BOOM1
 62
   188
 66
     1
  2
DISK_Y
 10
-45.257275
 20
61.538342
 30
-18.09788
 41
0.02
 42
22.381088
 50
75.27434
 43
0.02
210
-0.0000000000000009
220
1.0
230
0.0
  0
ATTRIB
  8
0
 62
     0
 10
106.399382
 20
21.007296
 30
80.008032
 40
2.238109
  1
Disk_Y
  2
NAME
 70
     1
 50
75.27434
 41
0.000447
210
-0.0000000000000009
220
1.0
230
0.0
  0
ATTRIB
  8
0
 62
     0
 10
110.007042
 20
20.059117
 30
80.008032
 40
2.238109
  1
intersection
  2
TYPE
 70
     1
 50
75.27434
 41
0.000447
210
-0.0000000000000009
220
1.0
230
0.0
  0
SEQEND
  8
BOOM1
  0
INSERT
  8
BOOM1
 62
     2
 66
     1
  2
CUBE
 10
26.89605
 20
-17.747169
 30
37.03502
 41
-4.0
 42
-2.25
 50
180.0
 43
0.09
  0
ATTRIB
  8
0
 62
     0
 10
-8.241416
 20
-17.983465
 30
18.934169
 40
0.2
  1
intersection
  2
TYPE
 70
     1
 50
0.0
 41
2.0
  0
ATTRIB
  8
0
 62
     0
 10
-8.241416
 20
-18.316798
 30
18.934169
 40
0.2
  1
Cube
  2
NAME
 70
     1
 50
0.0
 41
2.0
  0
SEQEND
  8
BOOM1
 62
     2
  0
INSERT
  8
BOOM1
 62
     2
 66
     1
  2
CUBE
 10
26.89605
 20
36.467377
 30
15.780565
 41
-4.0
 42
0.477644
 43
0.17
210
0.0000000000000003
220
-1.0
230
0.0
  0
ATTRIB
  8
0
 62
     0
 10
-26.89605
 20
36.467377
 30
-15.780565
 40
0.047764
  1
intersection
  2
TYPE
 70
     1
 41
8.374445
210
-0.0000000000000003
220
1.0
230
0.0
  0
ATTRIB
  8
0
 62
     0
 10
-26.89605
 20
36.387769
 30
-15.780565
 40
0.047764
  1
Cube
  2
NAME
 70
     1
 41
8.374445
210
-0.0000000000000003
220
1.0
230
0.0
  0
SEQEND
  8
BOOM1
 62
     2
  0
INSERT
  8
BOOM1
 62
     2
 66
     1
  2
CUBE
 10
-26.89605
 20
36.467377
 30
-19.671578
 41
4.0
 42
0.477644
 43
0.17
210
-0.0000000000000003
220
1.0
230
0.0
  0
ATTRIB
  8
0
 62
     0
 10
26.89605
 20
36.467377
 30
19.671578
 40
0.047764
  1
intersection
  2
TYPE
 70
     1
 41
8.374445
 71
     2
210
0.0000000000000003
220
-1.0
230
0.0
  0
ATTRIB
  8
0
 62
     0
 10
26.89605
 20
36.387769
 30
19.671578
 40
0.047764
  1
Cube
  2
NAME
 70
     1
 41
8.374445
 71
     2
210
0.0000000000000003
220
-1.0
230
0.0
  0
SEQEND
  8
BOOM1
 62
     2
  0
INSERT
  8
RIGHTP
 66
     1
  2
CUBE
 10
25.875522
 20
39.129644
 30
19.653385
 41
-2.787101
 42
-1.997479
 43
0.2
210
0.0000000000000003
220
-1.0
230
0.0
  0
ATTRIB
  8
0
 62
     0
 10
25.875522
 20
39.129644
 30
19.653385
 40
0.199748
  1
intersection
  2
TYPE
 70
     1
 50
180.0
 41
1.395309
210
0.0000000000000003
220
-1.0
230
0.0
  0
ATTRIB
  8
0
 62
     0
 10
25.875522
 20
39.462558
 30
19.653385
 40
0.199748
  1
Cube
  2
NAME
 70
     1
 50
180.0
 41
1.395309
210
0.0000000000000003
220
-1.0
230
0.0
  0
SEQEND
  8
RIGHTP
 62
     2
  0
INSERT
  8
BOOM1
 62
     2
 66
     1
  2
CUBE
 10
23.644019
 20
39.078947
 30
17.726071
 41
-0.264137
 42
-1.946782
 43
1.925
210
0.0000000000000003
220
-1.0
230
0.0
  0
ATTRIB
  8
0
 62
     0
 10
23.644019
 20
39.078947
 30
17.726071
 40
0.194678
  1
intersection
  2
TYPE
 70
     1
 50
180.0
 41
0.135679
210
0.0000000000000003
220
-1.0
230
0.0
  0
ATTRIB
  8
0
 62
     0
 10
23.644019
 20
39.40341
 30
17.726071
 40
0.194678
  1
Cube
  2
NAME
 70
     1
 50
180.0
 41
0.135679
210
0.0000000000000003
220
-1.0
230
0.0
  0
SEQEND
  8
BOOM1
 62
     2
  0
INSERT
  8
BOOM1
 62
     2
 66
     1
  2
CUBE
 10
26.28539
 20
40.660707
 30
17.726071
 41
-2.377234
 42
-0.243348
 43
1.925
210
0.0000000000000003
220
-1.0
230
0.0
  0
ATTRIB
  8
0
 62
     0
 10
26.28539
 20
40.660707
 30
17.726071
 40
0.024335
  1
intersection
  2
TYPE
 70
     1
 50
180.0
 41
9.768874
210
0.0000000000000003
220
-1.0
230
0.0
  0
ATTRIB
  8
0
 62
     0
 10
26.28539
 20
40.701265
 30
17.726071
 40
0.024335
  1
Cube
  2
NAME
 70
     1
 50
180.0
 41
9.768874
210
0.0000000000000003
220
-1.0
230
0.0
  0
SEQEND
  8
BOOM1
 62
     2
  0
INSERT
  8
BOOM1
 62
     2
 66
     1
  2
CUBE
 10
-25.875522
 20
39.129644
 30
-15.798758
 41
2.787101
 42
-1.997479
 43
0.2
210
-0.0000000000000003
220
1.0
230
0.0
  0
ATTRIB
  8
0
 62
     0
 10
-25.875522
 20
39.129644
 30
-15.798758
 40
0.199748
  1
intersection
  2
TYPE
 70
     1
 50
180.0
 41
1.395309
 71
     2
210
-0.0000000000000003
220
1.0
230
0.0
  0
ATTRIB
  8
0
 62
     0
 10
-25.875522
 20
39.462558
 30
-15.798758
 40
0.199748
  1
Cube
  2
NAME
 70
     1
 50
180.0
 41
1.395309
 71
     2
210
-0.0000000000000003
220
1.0
230
0.0
  0
SEQEND
  8
BOOM1
 62
     2
  0
INSERT
  8
BOOM1
 62
     2
 66
     1
  2
WEDGE
 10
17.726071
 20
39.105176
 30
-29.372444
 41
2.0
 42
2.0
 50
270.0
 43
0.7066
210
-1.0
220
-0.0000000000000003
230
0.0
  0
ATTRIB
  8
0
 62
     0
 10
-29.657943
 20
39.105176
 30
-17.440572
 40
0.1
  1
intersection
  2
TYPE
 70
     1
 50
270.0
210
-1.0
220
-0.0000000000000003
230
0.0
  0
ATTRIB
  8
0
 62
     0
 10
-29.82461
 20
39.105176
 30
-17.440572
 40
0.1
  1
Wedge
  2
NAME
 70
     1
 50
270.0
210
-1.0
220
-0.0000000000000003
230
0.0
  0
SEQEND
  8
BOOM1
 62
     2
  0
INSERT
  8
BOOM1
 62
     2
 66
     1
  2
CUBE
 10
-17.700303
 20
41.926404
 30
23.635001
 41
0.1
 42
1.307393
 50
90.0
 43
0.1
210
1.0
220
0.0000000000000003
230
0.0
  0
ATTRIB
  8
0
 62
     0
 10
-17.700303
 20
41.926404
 30
23.635001
 40
0.130739
  1
intersection
  2
TYPE
 70
     1
 50
90.0
 41
0.076488
210
1.0
220
0.0000000000000003
230
0.0
  0
ATTRIB
  8
0
 62
     0
 10
-17.482404
 20
41.926404
 30
23.635001
 40
0.130739
  1
Cube
  2
NAME
 70
     1
 50
90.0
 41
0.076488
210
1.0
220
0.0000000000000003
230
0.0
  0
SEQEND
  8
BOOM1
 62
     2
  0
INSERT
  8
BOOM1
 62
     2
 66
     1
  2
CUBE
 10
-17.683568
 20
51.169957
 30
23.635001
 41
0.1
 42
0.626176
 50
90.0
 43
0.1
210
1.0
220
0.0000000000000003
230
0.0
  0
ATTRIB
  8
0
 62
     0
 10
-17.683568
 20
51.169957
 30
23.635001
 40
0.062618
  1
intersection
  2
TYPE
 70
     1
 50
90.0
 41
0.159699
210
1.0
220
0.0000000000000003
230
0.0
  0
ATTRIB
  8
0
 62
     0
 10
-17.579205
 20
51.169957
 30
23.635001
 40
0.062618
  1
Cube
  2
NAME
 70
     1
 50
90.0
 41
0.159699
210
1.0
220
0.0000000000000003
230
0.0
  0
SEQEND
  8
BOOM1
 62
     2
  0
INSERT
  8
BOOM1
 62
     2
 66
     1
  2
CUBE
 10
23.399526
 20
-17.726071
 30
54.953801
 41
-1.3
 42
-1.5
 50
0.0
 43
0.15
  0
ATTRIB
  8
0
 62
     0
 10
23.399526
 20
-17.726071
 30
54.953801
 40
0.104974
  1
intersection
  2
TYPE
 70
     1
 50
180.0
 41
0.884396
  0
ATTRIB
  8
0
 62
     0
 10
23.399526
 20
-17.551115
 30
54.953801
 40
0.104974
  1
Cube
  2
NAME
 70
     1
 50
180.0
 41
0.884396
  0
SEQEND
  8
BOOM1
 62
     2
  0
INSERT
  8
BOOM1
 62
     2
 66
     1
  2
CUBE
 10
-19.160051
 20
55.553598
 30
22.164464
 41
0.03
 42
0.720896
 43
0.03
210
1.0
220
0.0000000000000003
230
0.0
  0
ATTRIB
  8
0
 62
     0
 10
55.070918
 20
23.399526
 30
-19.912433
 40
0.07209
  1
intersection
  2
TYPE
 70
     1
 41
0.041615
210
1.0
220
0.0000000000000003
230
0.0
  0
ATTRIB
  8
0
 62
     0
 10
55.070918
 20
23.279377
 30
-19.912433
 40
0.07209
  1
Cube
  2
NAME
 70
     1
 41
0.041615
210
1.0
220
0.0000000000000003
230
0.0
  0
SEQEND
  8
BOOM1
 62
     2
  0
INSERT
  8
BOOM1
 62
     2
 66
     1
  2
CUBE
 10
-16.292091
 20
55.553598
 30
22.164464
 41
-0.03
 42
0.720896
 43
0.03
210
1.0
220
0.0000000000000003
230
0.0
  0
ATTRIB
  8
0
 62
     0
 10
-90.52306
 20
23.399526
 30
-19.912433
 40
0.07209
  1
intersection
  2
TYPE
 70
     1
 41
0.041615
 71
     2
210
1.0
220
0.0000000000000003
230
0.0
  0
ATTRIB
  8
0
 62
     0
 10
-90.52306
 20
23.279377
 30
-19.912433
 40
0.07209
  1
Cube
  2
NAME
 70
     1
 41
0.041615
 71
     2
210
1.0
220
0.0000000000000003
230
0.0
  0
SEQEND
  8
BOOM1
 62
     2
  0
INSERT
  8
BOOM1
 62
     2
 66
     1
  2
CUBE
 10
16.292091
 20
55.553598
 30
-24.634589
 41
0.03
 42
0.720896
 43
0.03
210
-1.0
220
-0.0000000000000003
230
0.0
  0
ATTRIB
  8
0
 62
     0
 10
90.52306
 20
23.399526
 30
-66.711486
 40
0.07209
  1
intersection
  2
TYPE
 70
     1
 41
0.041615
210
-1.0
220
-0.0000000000000003
230
0.0
  0
ATTRIB
  8
0
 62
     0
 10
90.52306
 20
23.279377
 30
-66.711486
 40
0.07209
  1
Cube
  2
NAME
 70
     1
 41
0.041615
210
-1.0
220
-0.0000000000000003
230
0.0
  0
SEQEND
  8
BOOM1
 62
     2
  0
INSERT
  8
BOOM1
 62
     2
 66
     1
  2
CUBE
 10
19.160051
 20
55.553598
 30
-24.634589
 41
-0.03
 42
0.720896
 43
0.03
210
-1.0
220
-0.0000000000000003
230
0.0
  0
ATTRIB
  8
0
 62
     0
 10
-55.070918
 20
23.399526
 30
-66.711486
 40
0.07209
  1
intersection
  2
TYPE
 70
     1
 41
0.041615
 71
     2
210
-1.0
220
-0.0000000000000003
230
0.0
  0
ATTRIB
  8
0
 62
     0
 10
-55.070918
 20
23.279377
 30
-66.711486
 40
0.07209
  1
Cube
  2
NAME
 70
     1
 41
0.041615
 71
     2
210
-1.0
220
-0.0000000000000003
230
0.0
  0
SEQEND
  8
BOOM1
 62
     2
  0
INSERT
  8
BOOM1
 62
     2
 66
     1
  2
CUBE
 10
23.398968
 20
56.251616
 30
19.160051
 41
0.03
 42
1.23209
 50
270.0
 43
0.03
210
0.0000000000000003
220
-1.0
230
0.0
  0
ATTRIB
  8
0
 62
     0
 10
23.398968
 20
56.251616
 30
19.160051
 40
0.123209
  1
intersection
  2
TYPE
 70
     1
 50
270.0
 41
0.024349
210
0.0000000000000003
220
-1.0
230
0.0
  0
ATTRIB
  8
0
 62
     0
 10
23.19362
 20
56.251616
 30
19.160051
 40
0.123209
  1
Cube
  2
NAME
 70
     1
 50
270.0
 41
0.024349
210
0.0000000000000003
220
-1.0
230
0.0
  0
SEQEND
  8
BOOM1
 62
     2
  0
INSERT
  8
BOOM1
 62
     2
 66
     1
  2
CUBE
 10
23.398968
 20
55.548672
 30
19.160051
 41
0.03
 42
1.23209
 50
270.0
 43
0.03
210
0.0000000000000003
220
-1.0
230
0.0
  0
ATTRIB
  8
0
 62
     0
 10
23.398968
 20
55.548672
 30
19.160051
 40
0.123209
  1
intersection
  2
TYPE
 70
     1
 50
270.0
 41
0.024349
210
0.0000000000000003
220
-1.0
230
0.0
  0
ATTRIB
  8
0
 62
     0
 10
23.19362
 20
55.548672
 30
19.160051
 40
0.123209
  1
Cube
  2
NAME
 70
     1
 50
270.0
 41
0.024349
210
0.0000000000000003
220
-1.0
230
0.0
  0
SEQEND
  8
BOOM1
 62
     2
  0
INSERT
  8
BOOM1
 62
     2
 66
     1
  2
CUBE
 10
-17.715417
 20
56.229259
 30
22.164464
 41
0.03
 42
1.439183
 50
270.0
 43
0.03
210
1.0
220
0.0000000000000003
230
0.0
  0
ATTRIB
  8
0
 62
     0
 10
-17.715417
 20
56.229259
 30
22.164464
 40
0.143918
  1
intersection
  2
TYPE
 70
     1
 50
270.0
 41
0.020845
210
1.0
220
0.0000000000000003
230
0.0
  0
ATTRIB
  8
0
 62
     0
 10
-17.955281
 20
56.229259
 30
22.164464
 40
0.143918
  1
Cube
  2
NAME
 70
     1
 50
270.0
 41
0.020845
210
1.0
220
0.0000000000000003
230
0.0
  0
SEQEND
  8
BOOM1
 62
     2
  0
INSERT
  8
BOOM1
 62
     2
 66
     1
  2
CUBE
 10
-17.699063
 20
55.533698
 30
22.164464
 41
0.03
 42
1.422829
 50
270.0
 43
0.03
210
1.0
220
0.0000000000000003
230
0.0
  0
ATTRIB
  8
0
 62
     0
 10
-17.699063
 20
55.533698
 30
22.164464
 40
0.142283
  1
intersection
  2
TYPE
 70
     1
 50
270.0
 41
0.021085
210
1.0
220
0.0000000000000003
230
0.0
  0
ATTRIB
  8
0
 62
     0
 10
-17.936201
 20
55.533698
 30
22.164464
 40
0.142283
  1
Cube
  2
NAME
 70
     1
 50
270.0
 41
0.021085
210
1.0
220
0.0000000000000003
230
0.0
  0
SEQEND
  8
BOOM1
 62
     2
  0
INSERT
  8
BOOM1
 62
     2
 66
     1
  2
CUBE
 10
23.400084
 20
56.251616
 30
19.160051
 41
-0.03
 42
1.23209
 50
90.0
 43
0.03
210
0.0000000000000003
220
-1.0
230
0.0
  0
ATTRIB
  8
0
 62
     0
 10
23.400084
 20
56.251616
 30
19.160051
 40
0.123209
  1
intersection
  2
TYPE
 70
     1
 50
90.0
 41
0.024349
 71
     2
210
0.0000000000000003
220
-1.0
230
0.0
  0
ATTRIB
  8
0
 62
     0
 10
23.605433
 20
56.251616
 30
19.160051
 40
0.123209
  1
Cube
  2
NAME
 70
     1
 50
90.0
 41
0.024349
 71
     2
210
0.0000000000000003
220
-1.0
230
0.0
  0
SEQEND
  8
BOOM1
 62
     2
  0
INSERT
  8
BOOM1
 62
     2
 66
     1
  2
CUBE
 10
23.400084
 20
55.548672
 30
19.160051
 41
-0.03
 42
1.23209
 50
90.0
 43
0.03
210
0.0000000000000003
220
-1.0
230
0.0
  0
ATTRIB
  8
0
 62
     0
 10
23.400084
 20
55.548672
 30
19.160051
 40
0.123209
  1
intersection
  2
TYPE
 70
     1
 50
90.0
 41
0.024349
 71
     2
210
0.0000000000000003
220
-1.0
230
0.0
  0
ATTRIB
  8
0
 62
     0
 10
23.605433
 20
55.548672
 30
19.160051
 40
0.123209
  1
Cube
  2
NAME
 70
     1
 50
90.0
 41
0.024349
 71
     2
210
0.0000000000000003
220
-1.0
230
0.0
  0
SEQEND
  8
BOOM1
 62
     2
  0
INSERT
  8
BOOM1
 62
     2
 66
     1
  2
CUBE
 10
-23.400084
 20
56.251616
 30
-16.292091
 41
0.03
 42
1.23209
 50
270.0
 43
0.03
210
-0.0000000000000003
220
1.0
230
0.0
  0
ATTRIB
  8
0
 62
     0
 10
-23.400084
 20
56.251616
 30
-16.292091
 40
0.123209
  1
intersection
  2
TYPE
 70
     1
 50
270.0
 41
0.024349
210
-0.0000000000000003
220
1.0
230
0.0
  0
ATTRIB
  8
0
 62
     0
 10
-23.605433
 20
56.251616
 30
-16.292091
 40
0.123209
  1
Cube
  2
NAME
 70
     1
 50
270.0
 41
0.024349
210
-0.0000000000000003
220
1.0
230
0.0
  0
SEQEND
  8
BOOM1
 62
     2
  0
INSERT
  8
BOOM1
 62
     2
 66
     1
  2
CUBE
 10
-23.400084
 20
55.548672
 30
-16.292091
 41
0.03
 42
1.23209
 50
270.0
 43
0.03
210
-0.0000000000000003
220
1.0
230
0.0
  0
ATTRIB
  8
0
 62
     0
 10
-23.400084
 20
55.548672
 30
-16.292091
 40
0.123209
  1
intersection
  2
TYPE
 70
     1
 50
270.0
 41
0.024349
210
-0.0000000000000003
220
1.0
230
0.0
  0
ATTRIB
  8
0
 62
     0
 10
-23.605433
 20
55.548672
 30
-16.292091
 40
0.123209
  1
Cube
  2
NAME
 70
     1
 50
270.0
 41
0.024349
210
-0.0000000000000003
220
1.0
230
0.0
  0
SEQEND
  8
BOOM1
 62
     2
  0
INSERT
  8
BOOM1
 62
   188
 66
     1
  2
DISK_Y
 10
46.594309
 20
53.944059
 30
17.69788
 41
0.02
 42
24.267263
 50
123.187293
 43
0.02
210
0.0000000000000003
220
-1.0
230
0.0
  0
ATTRIB
  8
0
 62
     0
 10
46.594309
 20
53.944059
 30
17.69788
 40
2.426726
  1
Disk_Y
  2
NAME
 70
     1
 50
123.187293
 41
0.000824
210
0.0000000000000003
220
-1.0
230
0.0
  0
ATTRIB
  8
0
 62
     0
 10
49.97913
 20
56.157952
 30
17.69788
 40
2.426726
  1
intersection
  2
TYPE
 70
     1
 50
123.187293
 41
0.000824
210
0.0000000000000003
220
-1.0
230
0.0
  0
SEQEND
  8
BOOM1
  0
POINT
  8
BOOM1
 62
     2
 10
23.455043
 20
-16.164379
 30
55.117121
  0
POINT
  8
BOOM1
 62
     2
 10
23.292836
 20
-15.665155
 30
55.117121
  0
POINT
  8
BOOM1
 62
     2
 10
22.86817
 20
-15.356618
 30
55.117121
  0
POINT
  8
BOOM1
 62
     2
 10
22.343255
 20
-15.356618
 30
55.117121
  0
POINT
  8
BOOM1
 62
     2
 10
21.91859
 20
-15.665155
 30
55.117121
  0
POINT
  8
BOOM1
 62
     2
 10
21.756383
 20
-16.164379
 30
55.117121
  0
POINT
  8
BOOM1
 62
     2
 10
21.91859
 20
-16.663603
 30
55.117121
  0
POINT
  8
BOOM1
 62
     2
 10
22.343255
 20
-16.97214
 30
55.117121
  0
POINT
  8
BOOM1
 62
     2
 10
22.86817
 20
-16.97214
 30
55.117121
  0
POINT
  8
BOOM1
 62
     2
 10
23.292836
 20
-16.663603
 30
55.117121
  0
INSERT
  8
BOOM1
 62
     2
 66
     1
  2
DISK_Y
 10
22.605713
 20
-16.94214
 30
55.117121
 41
0.03
 42
0.262458
 50
270.0
 43
0.03
  0
ATTRIB
  8
0
 62
     0
 10
22.605713
 20
-16.94214
 30
55.117121
 40
0.026246
  1
Disk_Y
  2
NAME
 70
     1
 50
270.0
 41
0.114304
  0
ATTRIB
  8
0
 62
     0
 10
22.56197
 20
-16.94214
 30
55.117121
 40
0.026246
  1
intersection
  2
TYPE
 70
     1
 50
270.0
 41
0.114304
  0
SEQEND
  8
BOOM1
 62
     2
  0
INSERT
  8
BOOM1
 62
     2
 66
     1
  2
DISK_Y
 10
23.062869
 20
-16.793601
 30
55.117121
 41
0.03
 42
0.262458
 50
306.0
 43
0.03
  0
ATTRIB
  8
0
 62
     0
 10
23.062869
 20
-16.793601
 30
55.117121
 40
0.026246
  1
Disk_Y
  2
NAME
 70
     1
 50
306.0
 41
0.114304
  0
ATTRIB
  8
0
 62
     0
 10
23.027481
 20
-16.819313
 30
55.117121
 40
0.026246
  1
intersection
  2
TYPE
 70
     1
 50
306.0
 41
0.114304
  0
SEQEND
  8
BOOM1
 62
     2
  0
INSERT
  8
BOOM1
 62
     2
 66
     1
  2
DISK_Y
 10
23.345408
 20
-16.404721
 30
55.117121
 41
0.03
 42
0.262458
 50
342.0
 43
0.03
  0
ATTRIB
  8
0
 62
     0
 10
23.345408
 20
-16.404721
 30
55.117121
 40
0.026246
  1
Disk_Y
  2
NAME
 70
     1
 50
342.0
 41
0.114304
  0
ATTRIB
  8
0
 62
     0
 10
23.33189
 20
-16.446323
 30
55.117121
 40
0.026246
  1
intersection
  2
TYPE
 70
     1
 50
342.0
 41
0.114304
  0
SEQEND
  8
BOOM1
 62
     2
  0
INSERT
  8
BOOM1
 62
     2
 66
     1
  2
DISK_Y
 10
23.345408
 20
-15.924038
 30
55.117121
 41
0.03
 42
0.262458
 50
18.0
 43
0.03
  0
ATTRIB
  8
0
 62
     0
 10
23.345408
 20
-15.924038
 30
55.117121
 40
0.026246
  1
Disk_Y
  2
NAME
 70
     1
 50
18.0
 41
0.114304
  0
ATTRIB
  8
0
 62
     0
 10
23.358925
 20
-15.96564
 30
55.117121
 40
0.026246
  1
intersection
  2
TYPE
 70
     1
 50
18.0
 41
0.114304
  0
SEQEND
  8
BOOM1
 62
     2
  0
INSERT
  8
BOOM1
 62
     2
 66
     1
  2
DISK_Y
 10
23.062869
 20
-15.535157
 30
55.117121
 41
0.03
 42
0.262458
 50
54.0
 43
0.03
  0
ATTRIB
  8
0
 62
     0
 10
23.062869
 20
-15.535157
 30
55.117121
 40
0.026246
  1
Disk_Y
  2
NAME
 70
     1
 50
54.0
 41
0.114304
  0
ATTRIB
  8
0
 62
     0
 10
23.098258
 20
-15.560869
 30
55.117121
 40
0.026246
  1
intersection
  2
TYPE
 70
     1
 50
54.0
 41
0.114304
  0
SEQEND
  8
BOOM1
 62
     2
  0
INSERT
  8
BOOM1
 62
     2
 66
     1
  2
DISK_Y
 10
22.605713
 20
-15.386618
 30
55.117121
 41
0.03
 42
0.262458
 50
90.0
 43
0.03
  0
ATTRIB
  8
0
 62
     0
 10
22.605713
 20
-15.386618
 30
55.117121
 40
0.026246
  1
Disk_Y
  2
NAME
 70
     1
 50
90.0
 41
0.114304
  0
ATTRIB
  8
0
 62
     0
 10
22.649456
 20
-15.386618
 30
55.117121
 40
0.026246
  1
intersection
  2
TYPE
 70
     1
 50
90.0
 41
0.114304
  0
SEQEND
  8
BOOM1
 62
     2
  0
INSERT
  8
BOOM1
 62
     2
 66
     1
  2
DISK_Y
 10
22.148556
 20
-15.535157
 30
55.117121
 41
0.03
 42
0.262458
 50
126.0
 43
0.03
  0
ATTRIB
  8
0
 62
     0
 10
22.148556
 20
-15.535157
 30
55.117121
 40
0.026246
  1
Disk_Y
  2
NAME
 70
     1
 50
126.0
 41
0.114304
  0
ATTRIB
  8
0
 62
     0
 10
22.183945
 20
-15.509446
 30
55.117121
 40
0.026246
  1
intersection
  2
TYPE
 70
     1
 50
126.0
 41
0.114304
  0
SEQEND
  8
BOOM1
 62
     2
  0
INSERT
  8
BOOM1
 62
     2
 66
     1
  2
DISK_Y
 10
21.866018
 20
-15.924038
 30
55.117121
 41
0.03
 42
0.262458
 50
162.0
 43
0.03
  0
ATTRIB
  8
0
 62
     0
 10
21.866018
 20
-15.924038
 30
55.117121
 40
0.026246
  1
Disk_Y
  2
NAME
 70
     1
 50
162.0
 41
0.114304
  0
ATTRIB
  8
0
 62
     0
 10
21.879535
 20
-15.882436
 30
55.117121
 40
0.026246
  1
intersection
  2
TYPE
 70
     1
 50
162.0
 41
0.114304
  0
SEQEND
  8
BOOM1
 62
     2
  0
INSERT
  8
BOOM1
 62
     2
 66
     1
  2
DISK_Y
 10
21.866018
 20
-16.404721
 30
55.117121
 41
0.03
 42
0.262458
 50
198.0
 43
0.03
  0
ATTRIB
  8
0
 62
     0
 10
21.866018
 20
-16.404721
 30
55.117121
 40
0.026246
  1
Disk_Y
  2
NAME
 70
     1
 50
198.0
 41
0.114304
  0
ATTRIB
  8
0
 62
     0
 10
21.852501
 20
-16.363119
 30
55.117121
 40
0.026246
  1
intersection
  2
TYPE
 70
     1
 50
198.0
 41
0.114304
  0
SEQEND
  8
BOOM1
 62
     2
  0
INSERT
  8
BOOM1
 62
     2
 66
     1
  2
DISK_Y
 10
22.148556
 20
-16.793601
 30
55.117121
 41
0.03
 42
0.262458
 50
234.0
 43
0.03
  0
ATTRIB
  8
0
 62
     0
 10
22.148556
 20
-16.793601
 30
55.117121
 40
0.026246
  1
Disk_Y
  2
NAME
 70
     1
 50
234.0
 41
0.114304
  0
ATTRIB
  8
0
 62
     0
 10
22.113168
 20
-16.76789
 30
55.117121
 40
0.026246
  1
intersection
  2
TYPE
 70
     1
 50
234.0
 41
0.114304
  0
SEQEND
  8
BOOM1
 62
     2
  0
INSERT
  8
BOOM1
 62
     2
 66
     1
  2
DISK_Y
 10
22.148556
 20
48.493541
 30
16.793601
 41
0.03
 42
6.62358
 50
180.0
 43
0.03
210
0.0000000000000003
220
-1.0
230
0.0
  0
ATTRIB
  8
0
 62
     0
 10
22.148556
 20
48.493541
 30
16.793601
 40
0.662358
  1
Disk_Y
  2
NAME
 70
     1
 50
180.0
 41
0.004529
210
0.0000000000000003
220
-1.0
230
0.0
  0
ATTRIB
  8
0
 62
     0
 10
22.148556
 20
49.597471
 30
16.793601
 40
0.662358
  1
intersection
  2
TYPE
 70
     1
 50
180.0
 41
0.004529
210
0.0000000000000003
220
-1.0
230
0.0
  0
SEQEND
  8
BOOM1
 62
     2
  0
INSERT
  8
BOOM1
 62
     2
 66
     1
  2
DISK_Y
 10
23.345408
 20
-15.924038
 30
50.939643
 41
0.03
 42
0.262458
 50
18.0
 43
0.03
  0
ATTRIB
  8
0
 62
     0
 10
23.345408
 20
-15.924038
 30
50.939643
 40
0.026246
  1
Disk_Y
  2
NAME
 70
     1
 50
18.0
 41
0.114304
  0
ATTRIB
  8
0
 62
     0
 10
23.358925
 20
-15.96564
 30
50.939643
 40
0.026246
  1
intersection
  2
TYPE
 70
     1
 50
18.0
 41
0.114304
  0
SEQEND
  8
BOOM1
 62
     2
  0
INSERT
  8
BOOM1
 62
     2
 66
     1
  2
DISK_Y
 10
21.866018
 20
-15.924038
 30
50.939643
 41
0.03
 42
0.262458
 50
162.0
 43
0.03
  0
ATTRIB
  8
0
 62
     0
 10
21.866018
 20
-15.924038
 30
50.939643
 40
0.026246
  1
Disk_Y
  2
NAME
 70
     1
 50
162.0
 41
0.114304
  0
ATTRIB
  8
0
 62
     0
 10
21.879535
 20
-15.882436
 30
50.939643
 40
0.026246
  1
intersection
  2
TYPE
 70
     1
 50
162.0
 41
0.114304
  0
SEQEND
  8
BOOM1
 62
     2
  0
INSERT
  8
BOOM1
 62
     2
 66
     1
  2
DISK_Y
 10
22.605713
 20
-16.94214
 30
50.939643
 41
0.03
 42
0.262458
 50
270.0
 43
0.03
  0
ATTRIB
  8
0
 62
     0
 10
22.605713
 20
-16.94214
 30
50.939643
 40
0.026246
  1
Disk_Y
  2
NAME
 70
     1
 50
270.0
 41
0.114304
  0
ATTRIB
  8
0
 62
     0
 10
22.56197
 20
-16.94214
 30
50.939643
 40
0.026246
  1
intersection
  2
TYPE
 70
     1
 50
270.0
 41
0.114304
  0
SEQEND
  8
BOOM1
 62
     2
  0
INSERT
  8
BOOM1
 62
     2
 66
     1
  2
DISK_Y
 10
23.062869
 20
-16.793601
 30
50.939643
 41
0.03
 42
0.262458
 50
306.0
 43
0.03
  0
ATTRIB
  8
0
 62
     0
 10
23.062869
 20
-16.793601
 30
50.939643
 40
0.026246
  1
Disk_Y
  2
NAME
 70
     1
 50
306.0
 41
0.114304
  0
ATTRIB
  8
0
 62
     0
 10
23.027481
 20
-16.819313
 30
50.939643
 40
0.026246
  1
intersection
  2
TYPE
 70
     1
 50
306.0
 41
0.114304
  0
SEQEND
  8
BOOM1
 62
     2
  0
INSERT
  8
BOOM1
 62
     2
 66
     1
  2
DISK_Y
 10
21.866018
 20
-16.404721
 30
50.939643
 41
0.03
 42
0.262458
 50
198.0
 43
0.03
  0
ATTRIB
  8
0
 62
     0
 10
21.866018
 20
-16.404721
 30
50.939643
 40
0.026246
  1
Disk_Y
  2
NAME
 70
     1
 50
198.0
 41
0.114304
  0
ATTRIB
  8
0
 62
     0
 10
21.852501
 20
-16.363119
 30
50.939643
 40
0.026246
  1
intersection
  2
TYPE
 70
     1
 50
198.0
 41
0.114304
  0
SEQEND
  8
BOOM1
 62
     2
  0
POINT
  8
BOOM1
 62
     2
 10
21.91859
 20
-16.663603
 30
50.939643
  0
POINT
  8
BOOM1
 62
     2
 10
22.343255
 20
-16.97214
 30
50.939643
  0
INSERT
  8
BOOM1
 62
     2
 66
     1
  2
DISK_Y
 10
22.148556
 20
-16.793601
 30
50.939643
 41
0.03
 42
0.262458
 50
234.0
 43
0.03
  0
ATTRIB
  8
0
 62
     0
 10
22.148556
 20
-16.793601
 30
50.939643
 40
0.026246
  1
Disk_Y
  2
NAME
 70
     1
 50
234.0
 41
0.114304
  0
ATTRIB
  8
0
 62
     0
 10
22.113168
 20
-16.76789
 30
50.939643
 40
0.026246
  1
intersection
  2
TYPE
 70
     1
 50
234.0
 41
0.114304
  0
SEQEND
  8
BOOM1
 62
     2
  0
POINT
  8
BOOM1
 62
     2
 10
21.756383
 20
-16.164379
 30
50.939643
  0
INSERT
  8
BOOM1
 62
     2
 66
     1
  2
DISK_Y
 10
23.345408
 20
-16.404721
 30
50.939643
 41
0.03
 42
0.262458
 50
342.0
 43
0.03
  0
ATTRIB
  8
0
 62
     0
 10
23.345408
 20
-16.404721
 30
50.939643
 40
0.026246
  1
Disk_Y
  2
NAME
 70
     1
 50
342.0
 41
0.114304
  0
ATTRIB
  8
0
 62
     0
 10
23.33189
 20
-16.446323
 30
50.939643
 40
0.026246
  1
intersection
  2
TYPE
 70
     1
 50
342.0
 41
0.114304
  0
SEQEND
  8
BOOM1
 62
     2
  0
POINT
  8
BOOM1
 62
     2
 10
23.292836
 20
-16.663603
 30
50.939643
  0
POINT
  8
BOOM1
 62
     2
 10
22.86817
 20
-16.97214
 30
50.939643
  0
POINT
  8
BOOM1
 62
     2
 10
23.455043
 20
-16.164379
 30
50.939643
  0
INSERT
  8
BOOM1
 62
     2
 66
     1
  2
DISK_Y
 10
22.605713
 20
-15.386618
 30
50.939643
 41
0.03
 42
0.262458
 50
90.0
 43
0.03
  0
ATTRIB
  8
0
 62
     0
 10
22.605713
 20
-15.386618
 30
50.939643
 40
0.026246
  1
Disk_Y
  2
NAME
 70
     1
 50
90.0
 41
0.114304
  0
ATTRIB
  8
0
 62
     0
 10
22.649456
 20
-15.386618
 30
50.939643
 40
0.026246
  1
intersection
  2
TYPE
 70
     1
 50
90.0
 41
0.114304
  0
SEQEND
  8
BOOM1
 62
     2
  0
INSERT
  8
BOOM1
 62
     2
 66
     1
  2
DISK_Y
 10
23.062869
 20
-15.535157
 30
50.939643
 41
0.03
 42
0.262458
 50
54.0
 43
0.03
  0
ATTRIB
  8
0
 62
     0
 10
23.062869
 20
-15.535157
 30
50.939643
 40
0.026246
  1
Disk_Y
  2
NAME
 70
     1
 50
54.0
 41
0.114304
  0
ATTRIB
  8
0
 62
     0
 10
23.098258
 20
-15.560869
 30
50.939643
 40
0.026246
  1
intersection
  2
TYPE
 70
     1
 50
54.0
 41
0.114304
  0
SEQEND
  8
BOOM1
 62
     2
  0
POINT
  8
BOOM1
 62
     2
 10
22.343255
 20
-15.356618
 30
50.939643
  0
POINT
  8
BOOM1
 62
     2
 10
21.91859
 20
-15.665155
 30
50.939643
  0
INSERT
  8
BOOM1
 62
     2
 66
     1
  2
DISK_Y
 10
22.148556
 20
-15.535157
 30
50.939643
 41
0.03
 42
0.262458
 50
126.0
 43
0.03
  0
ATTRIB
  8
0
 62
     0
 10
22.148556
 20
-15.535157
 30
50.939643
 40
0.026246
  1
Disk_Y
  2
NAME
 70
     1
 50
126.0
 41
0.114304
  0
ATTRIB
  8
0
 62
     0
 10
22.183945
 20
-15.509446
 30
50.939643
 40
0.026246
  1
intersection
  2
TYPE
 70
     1
 50
126.0
 41
0.114304
  0
SEQEND
  8
BOOM1
 62
     2
  0
POINT
  8
BOOM1
 62
     2
 10
23.292836
 20
-15.665155
 30
50.939643
  0
POINT
  8
BOOM1
 62
     2
 10
22.86817
 20
-15.356618
 30
50.939643
  0
INSERT
  8
BOOM1
 62
     2
 66
     1
  2
DISK_Y
 10
21.866018
 20
-15.924038
 30
46.209772
 41
0.03
 42
0.262458
 50
162.0
 43
0.03
  0
ATTRIB
  8
0
 62
     0
 10
21.866018
 20
-15.924038
 30
46.209772
 40
0.026246
  1
Disk_Y
  2
NAME
 70
     1
 50
162.0
 41
0.114304
  0
ATTRIB
  8
0
 62
     0
 10
21.879535
 20
-15.882436
 30
46.209772
 40
0.026246
  1
intersection
  2
TYPE
 70
     1
 50
162.0
 41
0.114304
  0
SEQEND
  8
BOOM1
 62
     2
  0
INSERT
  8
BOOM1
 62
     2
 66
     1
  2
DISK_Y
 10
23.345408
 20
-15.924038
 30
46.209772
 41
0.03
 42
0.262458
 50
18.0
 43
0.03
  0
ATTRIB
  8
0
 62
     0
 10
23.345408
 20
-15.924038
 30
46.209772
 40
0.026246
  1
Disk_Y
  2
NAME
 70
     1
 50
18.0
 41
0.114304
  0
ATTRIB
  8
0
 62
     0
 10
23.358925
 20
-15.96564
 30
46.209772
 40
0.026246
  1
intersection
  2
TYPE
 70
     1
 50
18.0
 41
0.114304
  0
SEQEND
  8
BOOM1
 62
     2
  0
INSERT
  8
BOOM1
 62
     2
 66
     1
  2
DISK_Y
 10
23.062869
 20
-16.793601
 30
46.209772
 41
0.03
 42
0.262458
 50
306.0
 43
0.03
  0
ATTRIB
  8
0
 62
     0
 10
23.062869
 20
-16.793601
 30
46.209772
 40
0.026246
  1
Disk_Y
  2
NAME
 70
     1
 50
306.0
 41
0.114304
  0
ATTRIB
  8
0
 62
     0
 10
23.027481
 20
-16.819313
 30
46.209772
 40
0.026246
  1
intersection
  2
TYPE
 70
     1
 50
306.0
 41
0.114304
  0
SEQEND
  8
BOOM1
 62
     2
  0
INSERT
  8
BOOM1
 62
     2
 66
     1
  2
DISK_Y
 10
22.605713
 20
-16.94214
 30
46.209772
 41
0.03
 42
0.262458
 50
270.0
 43
0.03
  0
ATTRIB
  8
0
 62
     0
 10
22.605713
 20
-16.94214
 30
46.209772
 40
0.026246
  1
Disk_Y
  2
NAME
 70
     1
 50
270.0
 41
0.114304
  0
ATTRIB
  8
0
 62
     0
 10
22.56197
 20
-16.94214
 30
46.209772
 40
0.026246
  1
intersection
  2
TYPE
 70
     1
 50
270.0
 41
0.114304
  0
SEQEND
  8
BOOM1
 62
     2
  0
INSERT
  8
BOOM1
 62
     2
 66
     1
  2
DISK_Y
 10
21.866018
 20
-16.404721
 30
46.209772
 41
0.03
 42
0.262458
 50
198.0
 43
0.03
  0
ATTRIB
  8
0
 62
     0
 10
21.866018
 20
-16.404721
 30
46.209772
 40
0.026246
  1
Disk_Y
  2
NAME
 70
     1
 50
198.0
 41
0.114304
  0
ATTRIB
  8
0
 62
     0
 10
21.852501
 20
-16.363119
 30
46.209772
 40
0.026246
  1
intersection
  2
TYPE
 70
     1
 50
198.0
 41
0.114304
  0
SEQEND
  8
BOOM1
 62
     2
  0
INSERT
  8
BOOM1
 62
     2
 66
     1
  2
DISK_Y
 10
22.148556
 20
-16.793601
 30
46.209772
 41
0.03
 42
0.262458
 50
234.0
 43
0.03
  0
ATTRIB
  8
0
 62
     0
 10
22.148556
 20
-16.793601
 30
46.209772
 40
0.026246
  1
Disk_Y
  2
NAME
 70
     1
 50
234.0
 41
0.114304
  0
ATTRIB
  8
0
 62
     0
 10
22.113168
 20
-16.76789
 30
46.209772
 40
0.026246
  1
intersection
  2
TYPE
 70
     1
 50
234.0
 41
0.114304
  0
SEQEND
  8
BOOM1
 62
     2
  0
POINT
  8
BOOM1
 62
     2
 10
22.343255
 20
-16.97214
 30
46.209772
  0
POINT
  8
BOOM1
 62
     2
 10
21.91859
 20
-16.663603
 30
46.209772
  0
POINT
  8
BOOM1
 62
     2
 10
21.756383
 20
-16.164379
 30
46.209772
  0
INSERT
  8
BOOM1
 62
     2
 66
     1
  2
DISK_Y
 10
23.345408
 20
-16.404721
 30
46.209772
 41
0.03
 42
0.262458
 50
342.0
 43
0.03
  0
ATTRIB
  8
0
 62
     0
 10
23.345408
 20
-16.404721
 30
46.209772
 40
0.026246
  1
Disk_Y
  2
NAME
 70
     1
 50
342.0
 41
0.114304
  0
ATTRIB
  8
0
 62
     0
 10
23.33189
 20
-16.446323
 30
46.209772
 40
0.026246
  1
intersection
  2
TYPE
 70
     1
 50
342.0
 41
0.114304
  0
SEQEND
  8
BOOM1
 62
     2
  0
POINT
  8
BOOM1
 62
     2
 10
22.86817
 20
-16.97214
 30
46.209772
  0
POINT
  8
BOOM1
 62
     2
 10
23.292836
 20
-16.663603
 30
46.209772
  0
POINT
  8
BOOM1
 62
     2
 10
23.455043
 20
-16.164379
 30
46.209772
  0
INSERT
  8
BOOM1
 62
     2
 66
     1
  2
DISK_Y
 10
23.062869
 20
-15.535157
 30
46.209772
 41
0.03
 42
0.262458
 50
54.0
 43
0.03
  0
ATTRIB
  8
0
 62
     0
 10
23.062869
 20
-15.535157
 30
46.209772
 40
0.026246
  1
Disk_Y
  2
NAME
 70
     1
 50
54.0
 41
0.114304
  0
ATTRIB
  8
0
 62
     0
 10
23.098258
 20
-15.560869
 30
46.209772
 40
0.026246
  1
intersection
  2
TYPE
 70
     1
 50
54.0
 41
0.114304
  0
SEQEND
  8
BOOM1
 62
     2
  0
INSERT
  8
BOOM1
 62
     2
 66
     1
  2
DISK_Y
 10
22.605713
 20
-15.386618
 30
46.209772
 41
0.03
 42
0.262458
 50
90.0
 43
0.03
  0
ATTRIB
  8
0
 62
     0
 10
22.605713
 20
-15.386618
 30
46.209772
 40
0.026246
  1
Disk_Y
  2
NAME
 70
     1
 50
90.0
 41
0.114304
  0
ATTRIB
  8
0
 62
     0
 10
22.649456
 20
-15.386618
 30
46.209772
 40
0.026246
  1
intersection
  2
TYPE
 70
     1
 50
90.0
 41
0.114304
  0
SEQEND
  8
BOOM1
 62
     2
  0
INSERT
  8
BOOM1
 62
     2
 66
     1
  2
DISK_Y
 10
22.148556
 20
-15.535157
 30
46.209772
 41
0.03
 42
0.262458
 50
126.0
 43
0.03
  0
ATTRIB
  8
0
 62
     0
 10
22.148556
 20
-15.535157
 30
46.209772
 40
0.026246
  1
Disk_Y
  2
NAME
 70
     1
 50
126.0
 41
0.114304
  0
ATTRIB
  8
0
 62
     0
 10
22.183945
 20
-15.509446
 30
46.209772
 40
0.026246
  1
intersection
  2
TYPE
 70
     1
 50
126.0
 41
0.114304
  0
SEQEND
  8
BOOM1
 62
     2
  0
POINT
  8
BOOM1
 62
     2
 10
21.91859
 20
-15.665155
 30
46.209772
  0
POINT
  8
BOOM1
 62
     2
 10
22.343255
 20
-15.356618
 30
46.209772
  0
POINT
  8
BOOM1
 62
     2
 10
22.86817
 20
-15.356618
 30
46.209772
  0
POINT
  8
BOOM1
 62
     2
 10
23.292836
 20
-15.665155
 30
46.209772
  0
INSERT
  8
BOOM1
 62
     2
 66
     1
  2
DISK_Y
 10
23.345408
 20
-15.924038
 30
41.859671
 41
0.03
 42
0.262458
 50
18.0
 43
0.03
  0
ATTRIB
  8
0
 62
     0
 10
23.345408
 20
-15.924038
 30
41.859671
 40
0.026246
  1
Disk_Y
  2
NAME
 70
     1
 50
18.0
 41
0.114304
  0
ATTRIB
  8
0
 62
     0
 10
23.358925
 20
-15.96564
 30
41.859671
 40
0.026246
  1
intersection
  2
TYPE
 70
     1
 50
18.0
 41
0.114304
  0
SEQEND
  8
BOOM1
 62
     2
  0
INSERT
  8
BOOM1
 62
     2
 66
     1
  2
DISK_Y
 10
21.866018
 20
-15.924038
 30
41.859671
 41
0.03
 42
0.262458
 50
162.0
 43
0.03
  0
ATTRIB
  8
0
 62
     0
 10
21.866018
 20
-15.924038
 30
41.859671
 40
0.026246
  1
Disk_Y
  2
NAME
 70
     1
 50
162.0
 41
0.114304
  0
ATTRIB
  8
0
 62
     0
 10
21.879535
 20
-15.882436
 30
41.859671
 40
0.026246
  1
intersection
  2
TYPE
 70
     1
 50
162.0
 41
0.114304
  0
SEQEND
  8
BOOM1
 62
     2
  0
INSERT
  8
BOOM1
 62
     2
 66
     1
  2
DISK_Y
 10
22.605713
 20
-16.94214
 30
41.859671
 41
0.03
 42
0.262458
 50
270.0
 43
0.03
  0
ATTRIB
  8
0
 62
     0
 10
22.605713
 20
-16.94214
 30
41.859671
 40
0.026246
  1
Disk_Y
  2
NAME
 70
     1
 50
270.0
 41
0.114304
  0
ATTRIB
  8
0
 62
     0
 10
22.56197
 20
-16.94214
 30
41.859671
 40
0.026246
  1
intersection
  2
TYPE
 70
     1
 50
270.0
 41
0.114304
  0
SEQEND
  8
BOOM1
 62
     2
  0
INSERT
  8
BOOM1
 62
     2
 66
     1
  2
DISK_Y
 10
23.062869
 20
-16.793601
 30
41.859671
 41
0.03
 42
0.262458
 50
306.0
 43
0.03
  0
ATTRIB
  8
0
 62
     0
 10
23.062869
 20
-16.793601
 30
41.859671
 40
0.026246
  1
Disk_Y
  2
NAME
 70
     1
 50
306.0
 41
0.114304
  0
ATTRIB
  8
0
 62
     0
 10
23.027481
 20
-16.819313
 30
41.859671
 40
0.026246
  1
intersection
  2
TYPE
 70
     1
 50
306.0
 41
0.114304
  0
SEQEND
  8
BOOM1
 62
     2
  0
INSERT
  8
BOOM1
 62
     2
 66
     1
  2
DISK_Y
 10
21.866018
 20
-16.404721
 30
41.859671
 41
0.03
 42
0.262458
 50
198.0
 43
0.03
  0
ATTRIB
  8
0
 62
     0
 10
21.866018
 20
-16.404721
 30
41.859671
 40
0.026246
  1
Disk_Y
  2
NAME
 70
     1
 50
198.0
 41
0.114304
  0
ATTRIB
  8
0
 62
     0
 10
21.852501
 20
-16.363119
 30
41.859671
 40
0.026246
  1
intersection
  2
TYPE
 70
     1
 50
198.0
 41
0.114304
  0
SEQEND
  8
BOOM1
 62
     2
  0
POINT
  8
BOOM1
 62
     2
 10
21.91859
 20
-16.663603
 30
41.859671
  0
POINT
  8
BOOM1
 62
     2
 10
22.343255
 20
-16.97214
 30
41.859671
  0
INSERT
  8
BOOM1
 62
     2
 66
     1
  2
DISK_Y
 10
22.148556
 20
-16.793601
 30
41.859671
 41
0.03
 42
0.262458
 50
234.0
 43
0.03
  0
ATTRIB
  8
0
 62
     0
 10
22.148556
 20
-16.793601
 30
41.859671
 40
0.026246
  1
Disk_Y
  2
NAME
 70
     1
 50
234.0
 41
0.114304
  0
ATTRIB
  8
0
 62
     0
 10
22.113168
 20
-16.76789
 30
41.859671
 40
0.026246
  1
intersection
  2
TYPE
 70
     1
 50
234.0
 41
0.114304
  0
SEQEND
  8
BOOM1
 62
     2
  0
POINT
  8
BOOM1
 62
     2
 10
21.756383
 20
-16.164379
 30
41.859671
  0
INSERT
  8
BOOM1
 62
     2
 66
     1
  2
DISK_Y
 10
23.345408
 20
-16.404721
 30
41.859671
 41
0.03
 42
0.262458
 50
342.0
 43
0.03
  0
ATTRIB
  8
0
 62
     0
 10
23.345408
 20
-16.404721
 30
41.859671
 40
0.026246
  1
Disk_Y
  2
NAME
 70
     1
 50
342.0
 41
0.114304
  0
ATTRIB
  8
0
 62
     0
 10
23.33189
 20
-16.446323
 30
41.859671
 40
0.026246
  1
intersection
  2
TYPE
 70
     1
 50
342.0
 41
0.114304
  0
SEQEND
  8
BOOM1
 62
     2
  0
POINT
  8
BOOM1
 62
     2
 10
23.292836
 20
-16.663603
 30
41.859671
  0
POINT
  8
BOOM1
 62
     2
 10
22.86817
 20
-16.97214
 30
41.859671
  0
POINT
  8
BOOM1
 62
     2
 10
23.455043
 20
-16.164379
 30
41.859671
  0
INSERT
  8
BOOM1
 62
     2
 66
     1
  2
DISK_Y
 10
22.605713
 20
-15.386618
 30
41.859671
 41
0.03
 42
0.262458
 50
90.0
 43
0.03
  0
ATTRIB
  8
0
 62
     0
 10
22.605713
 20
-15.386618
 30
41.859671
 40
0.026246
  1
Disk_Y
  2
NAME
 70
     1
 50
90.0
 41
0.114304
  0
ATTRIB
  8
0
 62
     0
 10
22.649456
 20
-15.386618
 30
41.859671
 40
0.026246
  1
intersection
  2
TYPE
 70
     1
 50
90.0
 41
0.114304
  0
SEQEND
  8
BOOM1
 62
     2
  0
INSERT
  8
BOOM1
 62
     2
 66
     1
  2
DISK_Y
 10
23.062869
 20
-15.535157
 30
41.859671
 41
0.03
 42
0.262458
 50
54.0
 43
0.03
  0
ATTRIB
  8
0
 62
     0
 10
23.062869
 20
-15.535157
 30
41.859671
 40
0.026246
  1
Disk_Y
  2
NAME
 70
     1
 50
54.0
 41
0.114304
  0
ATTRIB
  8
0
 62
     0
 10
23.098258
 20
-15.560869
 30
41.859671
 40
0.026246
  1
intersection
  2
TYPE
 70
     1
 50
54.0
 41
0.114304
  0
SEQEND
  8
BOOM1
 62
     2
  0
POINT
  8
BOOM1
 62
     2
 10
22.343255
 20
-15.356618
 30
41.859671
  0
POINT
  8
BOOM1
 62
     2
 10
21.91859
 20
-15.665155
 30
41.859671
  0
INSERT
  8
BOOM1
 62
     2
 66
     1
  2
DISK_Y
 10
22.148556
 20
-15.535157
 30
41.859671
 41
0.03
 42
0.262458
 50
126.0
 43
0.03
  0
ATTRIB
  8
0
 62
     0
 10
22.148556
 20
-15.535157
 30
41.859671
 40
0.026246
  1
Disk_Y
  2
NAME
 70
     1
 50
126.0
 41
0.114304
  0
ATTRIB
  8
0
 62
     0
 10
22.183945
 20
-15.509446
 30
41.859671
 40
0.026246
  1
intersection
  2
TYPE
 70
     1
 50
126.0
 41
0.114304
  0
SEQEND
  8
BOOM1
 62
     2
  0
POINT
  8
BOOM1
 62
     2
 10
23.292836
 20
-15.665155
 30
41.859671
  0
POINT
  8
BOOM1
 62
     2
 10
22.86817
 20
-15.356618
 30
41.859671
  0
INSERT
  8
BOOM1
 62
     2
 66
     1
  2
DISK_Y
 10
-8.844672
 20
48.493541
 30
27.121276
 41
0.03
 42
6.62358
 50
180.0
 43
0.03
210
0.9510565162951538
220
-0.3090169943749472
230
0.0
  0
ATTRIB
  8
0
 62
     0
 10
-8.844672
 20
48.493541
 30
27.121276
 40
0.662358
  1
Disk_Y
  2
NAME
 70
     1
 50
180.0
 41
0.004529
210
0.9510565162951538
220
-0.3090169943749472
230
0.0
  0
ATTRIB
  8
0
 62
     0
 10
-8.844672
 20
49.597471
 30
27.121276
 40
0.662358
  1
intersection
  2
TYPE
 70
     1
 50
180.0
 41
0.004529
210
0.9510565162951538
220
-0.3090169943749472
230
0.0
  0
SEQEND
  8
BOOM1
 62
     2
  0
INSERT
  8
BOOM1
 62
     2
 66
     1
  2
DISK_Y
 10
-28.244309
 20
48.493541
 30
0.83639
 41
0.03
 42
6.62358
 50
180.0
 43
0.03
210
0.5877852522924729
220
0.8090169943749477
230
0.0
  0
ATTRIB
  8
0
 62
     0
 10
-28.244309
 20
48.493541
 30
0.83639
 40
0.662358
  1
Disk_Y
  2
NAME
 70
     1
 50
180.0
 41
0.004529
210
0.5877852522924729
220
0.8090169943749477
230
0.0
  0
ATTRIB
  8
0
 62
     0
 10
-28.244309
 20
49.597471
 30
0.83639
 40
0.662358
  1
intersection
  2
TYPE
 70
     1
 50
180.0
 41
0.004529
210
0.5877852522924729
220
0.8090169943749477
230
0.0
  0
SEQEND
  8
BOOM1
 62
     2
  0
INSERT
  8
BOOM1
 62
     2
 66
     1
  2
DISK_Y
 10
-9.240715
 20
48.493541
 30
-25.736236
 41
0.03
 42
6.62358
 50
180.0
 43
0.03
210
-0.5877852522924735
220
0.8090169943749473
230
0.0
  0
ATTRIB
  8
0
 62
     0
 10
-9.240715
 20
48.493541
 30
-25.736236
 40
0.662358
  1
Disk_Y
  2
NAME
 70
     1
 50
180.0
 41
0.004529
210
-0.5877852522924735
220
0.8090169943749473
230
0.0
  0
ATTRIB
  8
0
 62
     0
 10
-9.240715
 20
49.597471
 30
-25.736236
 40
0.662358
  1
intersection
  2
TYPE
 70
     1
 50
180.0
 41
0.004529
210
-0.5877852522924735
220
0.8090169943749473
230
0.0
  0
SEQEND
  8
BOOM1
 62
     2
  0
INSERT
  8
BOOM1
 62
     2
 66
     1
  2
DISK_Y
 10
21.903789
 20
48.493541
 30
-15.874138
 41
0.03
 42
6.62358
 50
180.0
 43
0.03
210
-0.9510565162951536
220
-0.3090169943749477
230
0.0
  0
ATTRIB
  8
0
 62
     0
 10
21.903789
 20
48.493541
 30
-15.874138
 40
0.662358
  1
Disk_Y
  2
NAME
 70
     1
 50
180.0
 41
0.004529
210
-0.9510565162951536
220
-0.3090169943749477
230
0.0
  0
ATTRIB
  8
0
 62
     0
 10
21.903789
 20
49.597471
 30
-15.874138
 40
0.662358
  1
intersection
  2
TYPE
 70
     1
 50
180.0
 41
0.004529
210
-0.9510565162951536
220
-0.3090169943749477
230
0.0
  0
SEQEND
  8
BOOM1
 62
     2
  0
INSERT
  8
STRIPE
 66
     1
  2
DISK_Z
 10
28.613083
 20
-17.726071
 30
27.6
 41
1.77
 42
1.77
 50
345.0
 43
2.0
  0
ATTRIB
  8
0
 62
     0
 10
28.613083
 20
-17.726071
 30
27.6
 40
0.176
  1
Disk_Z
  2
NAME
 70
     1
 50
345.0
  0
ATTRIB
  8
0
 62
     0
 10
28.537163
 20
-18.00941
 30
27.6
 40
0.176
  1
intersection
  2
TYPE
 70
     1
 50
345.0
  0
SEQEND
  8
STRIPE
 62
     2
  0
INSERT
  8
STRIPE
 62
     1
 66
     1
  2
DISK_Z
 10
28.613083
 20
-17.726071
 30
25.317653
 41
1.78
 42
1.78
 50
345.0
 43
0.3
  0
ATTRIB
  8
0
 62
     0
 10
28.613083
 20
-17.726071
 30
25.317653
 40
0.176
  1
Disk_Z
  2
NAME
 70
     1
 50
345.0
  0
ATTRIB
  8
0
 62
     0
 10
28.537163
 20
-18.00941
 30
25.317653
 40
0.176
  1
intersection
  2
TYPE
 70
     1
 50
345.0
  0
SEQEND
  8
STRIPE
 62
     2
  0
INSERT
  8
STRIPE
 62
     1
 66
     1
  2
DISK_Z
 10
28.613083
 20
-17.726071
 30
29.87828
 41
1.78
 42
1.78
 50
345.0
 43
0.3
  0
ATTRIB
  8
0
 62
     0
 10
28.613083
 20
-17.726071
 30
29.87828
 40
0.176
  1
Disk_Z
  2
NAME
 70
     1
 50
345.0
  0
ATTRIB
  8
0
 62
     0
 10
28.537163
 20
-18.00941
 30
29.87828
 40
0.176
  1
intersection
  2
TYPE
 70
     1
 50
345.0
  0
SEQEND
  8
STRIPE
 62
     2
  0
INSERT
  8
0
  6
CONTINUOUS
 62
     0
  2
CO
 10
0.0
 20
40.0
 30
100.0
 41
10.0
 42
10.0
 50
290.0
 43
10.0
  0
ENDSEC
  0
EOF
